ISO-10303-21;
HEADER;
/* Generated by software containing ST-Developer
 * from STEP Tools, Inc. (www.steptools.com) 
 */

FILE_DESCRIPTION(
/* description */ (''),
/* implementation_level */ '2;1');

FILE_NAME(
/* name */ 
'X:\\VIRI ZA WEB\\CAD DATOTEKE\\LINEARNE ENOTE UNIMOTION\\DODATNA OPRE
MA ZA LINEARNE ENOTE\\POVEZOVALNI ELEMENTI\\PRITRDILNE SPONE\\PRITRDIL
NA SPONA CTV_CTJ 90 L= 25 M4 B\\izvoz\\CAD_46994.stp',
/* time_stamp */ '2016-04-09T10:03:05+02:00',
/* author */ ('Hypex'),
/* organization */ ('Hypex'),
/* preprocessor_version */ 'ST-DEVELOPER v16.1',
/* originating_system */ 'Autodesk Inventor 2016',
/* authorisation */ '');

FILE_SCHEMA (('AUTOMOTIVE_DESIGN { 1 0 10303 214 3 1 1 }'));
ENDSEC;

DATA;
#10=MECHANICAL_DESIGN_GEOMETRIC_PRESENTATION_REPRESENTATION('',(#13),#476);
#11=SHAPE_REPRESENTATION_RELATIONSHIP('SRR','None',#485,#12);
#12=ADVANCED_BREP_SHAPE_REPRESENTATION('',(#14),#475);
#13=STYLED_ITEM('',(#494),#14);
#14=MANIFOLD_SOLID_BREP('Solid1',#296);
#15=LINE('',#408,#48);
#16=LINE('',#410,#49);
#17=LINE('',#412,#50);
#18=LINE('',#413,#51);
#19=LINE('',#416,#52);
#20=LINE('',#418,#53);
#21=LINE('',#420,#54);
#22=LINE('',#422,#55);
#23=LINE('',#424,#56);
#24=LINE('',#426,#57);
#25=LINE('',#428,#58);
#26=LINE('',#430,#59);
#27=LINE('',#432,#60);
#28=LINE('',#433,#61);
#29=LINE('',#436,#62);
#30=LINE('',#437,#63);
#31=LINE('',#440,#64);
#32=LINE('',#441,#65);
#33=LINE('',#444,#66);
#34=LINE('',#445,#67);
#35=LINE('',#448,#68);
#36=LINE('',#449,#69);
#37=LINE('',#452,#70);
#38=LINE('',#453,#71);
#39=LINE('',#456,#72);
#40=LINE('',#457,#73);
#41=LINE('',#460,#74);
#42=LINE('',#461,#75);
#43=LINE('',#464,#76);
#44=LINE('',#465,#77);
#45=LINE('',#468,#78);
#46=LINE('',#469,#79);
#47=LINE('',#471,#80);
#48=VECTOR('',#336,0.707106781186545);
#49=VECTOR('',#337,25.);
#50=VECTOR('',#338,0.707106781186545);
#51=VECTOR('',#339,25.);
#52=VECTOR('',#342,14.5);
#53=VECTOR('',#343,4.);
#54=VECTOR('',#344,1.79999999999998);
#55=VECTOR('',#345,0.499999999999989);
#56=VECTOR('',#346,2.20000000000001);
#57=VECTOR('',#347,5.1);
#58=VECTOR('',#348,9.00000000000002);
#59=VECTOR('',#349,0.4);
#60=VECTOR('',#350,1.99999999999999);
#61=VECTOR('',#351,8.50000000000001);
#62=VECTOR('',#354,14.5);
#63=VECTOR('',#355,25.);
#64=VECTOR('',#358,4.);
#65=VECTOR('',#359,25.);
#66=VECTOR('',#362,1.79999999999998);
#67=VECTOR('',#363,25.);
#68=VECTOR('',#366,0.499999999999989);
#69=VECTOR('',#367,25.);
#70=VECTOR('',#370,2.20000000000001);
#71=VECTOR('',#371,25.);
#72=VECTOR('',#374,5.1);
#73=VECTOR('',#375,25.);
#74=VECTOR('',#378,9.00000000000002);
#75=VECTOR('',#379,25.);
#76=VECTOR('',#382,0.4);
#77=VECTOR('',#383,25.);
#78=VECTOR('',#386,1.99999999999999);
#79=VECTOR('',#387,25.);
#80=VECTOR('',#390,8.50000000000001);
#81=CYLINDRICAL_SURFACE('',#301,4.);
#82=CYLINDRICAL_SURFACE('',#303,2.25);
#83=FACE_BOUND('',#105,.T.);
#84=FACE_BOUND('',#107,.T.);
#85=FACE_BOUND('',#109,.T.);
#86=FACE_BOUND('',#113,.T.);
#87=FACE_BOUND('',#120,.T.);
#88=FACE_OUTER_BOUND('',#104,.T.);
#89=FACE_OUTER_BOUND('',#106,.T.);
#90=FACE_OUTER_BOUND('',#108,.T.);
#91=FACE_OUTER_BOUND('',#110,.T.);
#92=FACE_OUTER_BOUND('',#111,.T.);
#93=FACE_OUTER_BOUND('',#112,.T.);
#94=FACE_OUTER_BOUND('',#114,.T.);
#95=FACE_OUTER_BOUND('',#115,.T.);
#96=FACE_OUTER_BOUND('',#116,.T.);
#97=FACE_OUTER_BOUND('',#117,.T.);
#98=FACE_OUTER_BOUND('',#118,.T.);
#99=FACE_OUTER_BOUND('',#119,.T.);
#100=FACE_OUTER_BOUND('',#121,.T.);
#101=FACE_OUTER_BOUND('',#122,.T.);
#102=FACE_OUTER_BOUND('',#123,.T.);
#103=FACE_OUTER_BOUND('',#124,.T.);
#104=EDGE_LOOP('',(#192));
#105=EDGE_LOOP('',(#193));
#106=EDGE_LOOP('',(#194));
#107=EDGE_LOOP('',(#195));
#108=EDGE_LOOP('',(#196));
#109=EDGE_LOOP('',(#197));
#110=EDGE_LOOP('',(#198,#199,#200,#201));
#111=EDGE_LOOP('',(#202,#203,#204,#205,#206,#207,#208,#209,#210,#211,#212));
#112=EDGE_LOOP('',(#213,#214,#215,#216));
#113=EDGE_LOOP('',(#217));
#114=EDGE_LOOP('',(#218,#219,#220,#221));
#115=EDGE_LOOP('',(#222,#223,#224,#225));
#116=EDGE_LOOP('',(#226,#227,#228,#229));
#117=EDGE_LOOP('',(#230,#231,#232,#233));
#118=EDGE_LOOP('',(#234,#235,#236,#237));
#119=EDGE_LOOP('',(#238,#239,#240,#241));
#120=EDGE_LOOP('',(#242));
#121=EDGE_LOOP('',(#243,#244,#245,#246));
#122=EDGE_LOOP('',(#247,#248,#249,#250));
#123=EDGE_LOOP('',(#251,#252,#253,#254));
#124=EDGE_LOOP('',(#255,#256,#257,#258,#259,#260,#261,#262,#263,#264,#265));
#125=CIRCLE('',#299,4.);
#126=CIRCLE('',#300,2.25);
#127=CIRCLE('',#302,4.);
#128=CIRCLE('',#304,2.25);
#129=VERTEX_POINT('',#395);
#130=VERTEX_POINT('',#397);
#131=VERTEX_POINT('',#400);
#132=VERTEX_POINT('',#403);
#133=VERTEX_POINT('',#406);
#134=VERTEX_POINT('',#407);
#135=VERTEX_POINT('',#409);
#136=VERTEX_POINT('',#411);
#137=VERTEX_POINT('',#415);
#138=VERTEX_POINT('',#417);
#139=VERTEX_POINT('',#419);
#140=VERTEX_POINT('',#421);
#141=VERTEX_POINT('',#423);
#142=VERTEX_POINT('',#425);
#143=VERTEX_POINT('',#427);
#144=VERTEX_POINT('',#429);
#145=VERTEX_POINT('',#431);
#146=VERTEX_POINT('',#435);
#147=VERTEX_POINT('',#439);
#148=VERTEX_POINT('',#443);
#149=VERTEX_POINT('',#447);
#150=VERTEX_POINT('',#451);
#151=VERTEX_POINT('',#455);
#152=VERTEX_POINT('',#459);
#153=VERTEX_POINT('',#463);
#154=VERTEX_POINT('',#467);
#155=EDGE_CURVE('',#129,#129,#125,.T.);
#156=EDGE_CURVE('',#130,#130,#126,.T.);
#157=EDGE_CURVE('',#131,#131,#127,.T.);
#158=EDGE_CURVE('',#132,#132,#128,.T.);
#159=EDGE_CURVE('',#133,#134,#15,.T.);
#160=EDGE_CURVE('',#134,#135,#16,.T.);
#161=EDGE_CURVE('',#135,#136,#17,.T.);
#162=EDGE_CURVE('',#136,#133,#18,.T.);
#163=EDGE_CURVE('',#137,#135,#19,.T.);
#164=EDGE_CURVE('',#138,#137,#20,.T.);
#165=EDGE_CURVE('',#139,#138,#21,.T.);
#166=EDGE_CURVE('',#140,#139,#22,.T.);
#167=EDGE_CURVE('',#141,#140,#23,.T.);
#168=EDGE_CURVE('',#142,#141,#24,.T.);
#169=EDGE_CURVE('',#143,#142,#25,.T.);
#170=EDGE_CURVE('',#144,#143,#26,.T.);
#171=EDGE_CURVE('',#145,#144,#27,.T.);
#172=EDGE_CURVE('',#136,#145,#28,.T.);
#173=EDGE_CURVE('',#134,#146,#29,.T.);
#174=EDGE_CURVE('',#137,#146,#30,.T.);
#175=EDGE_CURVE('',#146,#147,#31,.T.);
#176=EDGE_CURVE('',#138,#147,#32,.T.);
#177=EDGE_CURVE('',#147,#148,#33,.T.);
#178=EDGE_CURVE('',#139,#148,#34,.T.);
#179=EDGE_CURVE('',#148,#149,#35,.T.);
#180=EDGE_CURVE('',#140,#149,#36,.T.);
#181=EDGE_CURVE('',#149,#150,#37,.T.);
#182=EDGE_CURVE('',#141,#150,#38,.T.);
#183=EDGE_CURVE('',#150,#151,#39,.T.);
#184=EDGE_CURVE('',#142,#151,#40,.T.);
#185=EDGE_CURVE('',#151,#152,#41,.T.);
#186=EDGE_CURVE('',#143,#152,#42,.T.);
#187=EDGE_CURVE('',#152,#153,#43,.T.);
#188=EDGE_CURVE('',#144,#153,#44,.T.);
#189=EDGE_CURVE('',#153,#154,#45,.T.);
#190=EDGE_CURVE('',#145,#154,#46,.T.);
#191=EDGE_CURVE('',#154,#133,#47,.T.);
#192=ORIENTED_EDGE('',*,*,#155,.T.);
#193=ORIENTED_EDGE('',*,*,#156,.F.);
#194=ORIENTED_EDGE('',*,*,#157,.F.);
#195=ORIENTED_EDGE('',*,*,#155,.F.);
#196=ORIENTED_EDGE('',*,*,#158,.F.);
#197=ORIENTED_EDGE('',*,*,#156,.T.);
#198=ORIENTED_EDGE('',*,*,#159,.T.);
#199=ORIENTED_EDGE('',*,*,#160,.T.);
#200=ORIENTED_EDGE('',*,*,#161,.T.);
#201=ORIENTED_EDGE('',*,*,#162,.T.);
#202=ORIENTED_EDGE('',*,*,#161,.F.);
#203=ORIENTED_EDGE('',*,*,#163,.F.);
#204=ORIENTED_EDGE('',*,*,#164,.F.);
#205=ORIENTED_EDGE('',*,*,#165,.F.);
#206=ORIENTED_EDGE('',*,*,#166,.F.);
#207=ORIENTED_EDGE('',*,*,#167,.F.);
#208=ORIENTED_EDGE('',*,*,#168,.F.);
#209=ORIENTED_EDGE('',*,*,#169,.F.);
#210=ORIENTED_EDGE('',*,*,#170,.F.);
#211=ORIENTED_EDGE('',*,*,#171,.F.);
#212=ORIENTED_EDGE('',*,*,#172,.F.);
#213=ORIENTED_EDGE('',*,*,#160,.F.);
#214=ORIENTED_EDGE('',*,*,#173,.T.);
#215=ORIENTED_EDGE('',*,*,#174,.F.);
#216=ORIENTED_EDGE('',*,*,#163,.T.);
#217=ORIENTED_EDGE('',*,*,#157,.T.);
#218=ORIENTED_EDGE('',*,*,#175,.T.);
#219=ORIENTED_EDGE('',*,*,#176,.F.);
#220=ORIENTED_EDGE('',*,*,#164,.T.);
#221=ORIENTED_EDGE('',*,*,#174,.T.);
#222=ORIENTED_EDGE('',*,*,#177,.T.);
#223=ORIENTED_EDGE('',*,*,#178,.F.);
#224=ORIENTED_EDGE('',*,*,#165,.T.);
#225=ORIENTED_EDGE('',*,*,#176,.T.);
#226=ORIENTED_EDGE('',*,*,#179,.T.);
#227=ORIENTED_EDGE('',*,*,#180,.F.);
#228=ORIENTED_EDGE('',*,*,#166,.T.);
#229=ORIENTED_EDGE('',*,*,#178,.T.);
#230=ORIENTED_EDGE('',*,*,#181,.T.);
#231=ORIENTED_EDGE('',*,*,#182,.F.);
#232=ORIENTED_EDGE('',*,*,#167,.T.);
#233=ORIENTED_EDGE('',*,*,#180,.T.);
#234=ORIENTED_EDGE('',*,*,#183,.T.);
#235=ORIENTED_EDGE('',*,*,#184,.F.);
#236=ORIENTED_EDGE('',*,*,#168,.T.);
#237=ORIENTED_EDGE('',*,*,#182,.T.);
#238=ORIENTED_EDGE('',*,*,#185,.T.);
#239=ORIENTED_EDGE('',*,*,#186,.F.);
#240=ORIENTED_EDGE('',*,*,#169,.T.);
#241=ORIENTED_EDGE('',*,*,#184,.T.);
#242=ORIENTED_EDGE('',*,*,#158,.T.);
#243=ORIENTED_EDGE('',*,*,#187,.T.);
#244=ORIENTED_EDGE('',*,*,#188,.F.);
#245=ORIENTED_EDGE('',*,*,#170,.T.);
#246=ORIENTED_EDGE('',*,*,#186,.T.);
#247=ORIENTED_EDGE('',*,*,#189,.T.);
#248=ORIENTED_EDGE('',*,*,#190,.F.);
#249=ORIENTED_EDGE('',*,*,#171,.T.);
#250=ORIENTED_EDGE('',*,*,#188,.T.);
#251=ORIENTED_EDGE('',*,*,#162,.F.);
#252=ORIENTED_EDGE('',*,*,#172,.T.);
#253=ORIENTED_EDGE('',*,*,#190,.T.);
#254=ORIENTED_EDGE('',*,*,#191,.T.);
#255=ORIENTED_EDGE('',*,*,#159,.F.);
#256=ORIENTED_EDGE('',*,*,#191,.F.);
#257=ORIENTED_EDGE('',*,*,#189,.F.);
#258=ORIENTED_EDGE('',*,*,#187,.F.);
#259=ORIENTED_EDGE('',*,*,#185,.F.);
#260=ORIENTED_EDGE('',*,*,#183,.F.);
#261=ORIENTED_EDGE('',*,*,#181,.F.);
#262=ORIENTED_EDGE('',*,*,#179,.F.);
#263=ORIENTED_EDGE('',*,*,#177,.F.);
#264=ORIENTED_EDGE('',*,*,#175,.F.);
#265=ORIENTED_EDGE('',*,*,#173,.F.);
#266=PLANE('',#298);
#267=PLANE('',#305);
#268=PLANE('',#306);
#269=PLANE('',#307);
#270=PLANE('',#308);
#271=PLANE('',#309);
#272=PLANE('',#310);
#273=PLANE('',#311);
#274=PLANE('',#312);
#275=PLANE('',#313);
#276=PLANE('',#314);
#277=PLANE('',#315);
#278=PLANE('',#316);
#279=PLANE('',#317);
#280=ADVANCED_FACE('',(#88,#83),#266,.T.);
#281=ADVANCED_FACE('',(#89,#84),#81,.F.);
#282=ADVANCED_FACE('',(#90,#85),#82,.F.);
#283=ADVANCED_FACE('',(#91),#267,.T.);
#284=ADVANCED_FACE('',(#92),#268,.F.);
#285=ADVANCED_FACE('',(#93,#86),#269,.T.);
#286=ADVANCED_FACE('',(#94),#270,.T.);
#287=ADVANCED_FACE('',(#95),#271,.T.);
#288=ADVANCED_FACE('',(#96),#272,.T.);
#289=ADVANCED_FACE('',(#97),#273,.T.);
#290=ADVANCED_FACE('',(#98),#274,.T.);
#291=ADVANCED_FACE('',(#99,#87),#275,.T.);
#292=ADVANCED_FACE('',(#100),#276,.T.);
#293=ADVANCED_FACE('',(#101),#277,.T.);
#294=ADVANCED_FACE('',(#102),#278,.T.);
#295=ADVANCED_FACE('',(#103),#279,.T.);
#296=CLOSED_SHELL('',(#280,#281,#282,#283,#284,#285,#286,#287,#288,#289,
#290,#291,#292,#293,#294,#295));
#297=AXIS2_PLACEMENT_3D('placement',#393,#318,#319);
#298=AXIS2_PLACEMENT_3D('',#394,#320,#321);
#299=AXIS2_PLACEMENT_3D('',#396,#322,#323);
#300=AXIS2_PLACEMENT_3D('',#398,#324,#325);
#301=AXIS2_PLACEMENT_3D('',#399,#326,#327);
#302=AXIS2_PLACEMENT_3D('',#401,#328,#329);
#303=AXIS2_PLACEMENT_3D('',#402,#330,#331);
#304=AXIS2_PLACEMENT_3D('',#404,#332,#333);
#305=AXIS2_PLACEMENT_3D('',#405,#334,#335);
#306=AXIS2_PLACEMENT_3D('',#414,#340,#341);
#307=AXIS2_PLACEMENT_3D('',#434,#352,#353);
#308=AXIS2_PLACEMENT_3D('',#438,#356,#357);
#309=AXIS2_PLACEMENT_3D('',#442,#360,#361);
#310=AXIS2_PLACEMENT_3D('',#446,#364,#365);
#311=AXIS2_PLACEMENT_3D('',#450,#368,#369);
#312=AXIS2_PLACEMENT_3D('',#454,#372,#373);
#313=AXIS2_PLACEMENT_3D('',#458,#376,#377);
#314=AXIS2_PLACEMENT_3D('',#462,#380,#381);
#315=AXIS2_PLACEMENT_3D('',#466,#384,#385);
#316=AXIS2_PLACEMENT_3D('',#470,#388,#389);
#317=AXIS2_PLACEMENT_3D('',#472,#391,#392);
#318=DIRECTION('axis',(0.,0.,1.));
#319=DIRECTION('refdir',(1.,0.,0.));
#320=DIRECTION('center_axis',(0.,1.,0.));
#321=DIRECTION('ref_axis',(1.,0.,0.));
#322=DIRECTION('center_axis',(0.,1.,0.));
#323=DIRECTION('ref_axis',(1.,0.,0.));
#324=DIRECTION('center_axis',(0.,1.,0.));
#325=DIRECTION('ref_axis',(1.,0.,0.));
#326=DIRECTION('center_axis',(0.,1.,0.));
#327=DIRECTION('ref_axis',(1.,0.,0.));
#328=DIRECTION('center_axis',(0.,-1.,0.));
#329=DIRECTION('ref_axis',(1.,0.,0.));
#330=DIRECTION('center_axis',(0.,1.,0.));
#331=DIRECTION('ref_axis',(1.,0.,0.));
#332=DIRECTION('center_axis',(0.,1.,0.));
#333=DIRECTION('ref_axis',(1.,0.,0.));
#334=DIRECTION('center_axis',(-0.707106781186535,0.70710678118656,0.));
#335=DIRECTION('ref_axis',(0.,0.,1.));
#336=DIRECTION('',(0.70710678118656,0.707106781186535,0.));
#337=DIRECTION('',(0.,0.,-1.));
#338=DIRECTION('',(-0.70710678118656,-0.707106781186535,0.));
#339=DIRECTION('',(0.,0.,1.));
#340=DIRECTION('center_axis',(0.,0.,1.));
#341=DIRECTION('ref_axis',(1.,0.,0.));
#342=DIRECTION('',(-1.,0.,0.));
#343=DIRECTION('',(0.,1.,0.));
#344=DIRECTION('',(1.,-4.93432455388964E-15,0.));
#345=DIRECTION('',(0.,-1.,0.));
#346=DIRECTION('',(1.,0.,0.));
#347=DIRECTION('',(0.,1.,0.));
#348=DIRECTION('',(1.,0.,0.));
#349=DIRECTION('',(0.,1.,0.));
#350=DIRECTION('',(1.,0.,0.));
#351=DIRECTION('',(0.,-1.,0.));
#352=DIRECTION('center_axis',(0.,1.,0.));
#353=DIRECTION('ref_axis',(0.,0.,1.));
#354=DIRECTION('',(1.,0.,0.));
#355=DIRECTION('',(0.,0.,1.));
#356=DIRECTION('center_axis',(1.,0.,0.));
#357=DIRECTION('ref_axis',(0.,0.,-1.));
#358=DIRECTION('',(0.,-1.,0.));
#359=DIRECTION('',(0.,0.,1.));
#360=DIRECTION('center_axis',(-4.93432455388964E-15,-1.,0.));
#361=DIRECTION('ref_axis',(0.,0.,-1.));
#362=DIRECTION('',(-1.,4.93432455388964E-15,0.));
#363=DIRECTION('',(0.,0.,1.));
#364=DIRECTION('center_axis',(-1.,0.,0.));
#365=DIRECTION('ref_axis',(0.,0.,1.));
#366=DIRECTION('',(0.,1.,0.));
#367=DIRECTION('',(0.,0.,1.));
#368=DIRECTION('center_axis',(0.,-1.,0.));
#369=DIRECTION('ref_axis',(0.,0.,-1.));
#370=DIRECTION('',(-1.,0.,0.));
#371=DIRECTION('',(0.,0.,1.));
#372=DIRECTION('center_axis',(1.,0.,0.));
#373=DIRECTION('ref_axis',(0.,0.,-1.));
#374=DIRECTION('',(0.,-1.,0.));
#375=DIRECTION('',(0.,0.,1.));
#376=DIRECTION('center_axis',(0.,-1.,0.));
#377=DIRECTION('ref_axis',(0.,0.,-1.));
#378=DIRECTION('',(-1.,0.,0.));
#379=DIRECTION('',(0.,0.,1.));
#380=DIRECTION('center_axis',(1.,0.,0.));
#381=DIRECTION('ref_axis',(0.,0.,-1.));
#382=DIRECTION('',(0.,-1.,0.));
#383=DIRECTION('',(0.,0.,1.));
#384=DIRECTION('center_axis',(0.,-1.,0.));
#385=DIRECTION('ref_axis',(0.,0.,-1.));
#386=DIRECTION('',(-1.,0.,0.));
#387=DIRECTION('',(0.,0.,1.));
#388=DIRECTION('center_axis',(-1.,0.,0.));
#389=DIRECTION('ref_axis',(0.,0.,1.));
#390=DIRECTION('',(0.,1.,0.));
#391=DIRECTION('center_axis',(0.,0.,1.));
#392=DIRECTION('ref_axis',(1.,0.,0.));
#393=CARTESIAN_POINT('',(0.,0.,0.));
#394=CARTESIAN_POINT('Origin',(-109.984111347116,47.1409882994481,12.5));
#395=CARTESIAN_POINT('',(-105.984111347116,47.1409882994481,12.5));
#396=CARTESIAN_POINT('Origin',(-109.984111347116,47.1409882994481,12.5));
#397=CARTESIAN_POINT('',(-112.234111347116,47.1409882994481,12.5));
#398=CARTESIAN_POINT('Origin',(-109.984111347116,47.1409882994481,12.5));
#399=CARTESIAN_POINT('Origin',(-109.984111347116,49.3909882994481,12.5));
#400=CARTESIAN_POINT('',(-105.984111347116,51.6409882994481,12.5));
#401=CARTESIAN_POINT('Origin',(-109.984111347116,51.6409882994481,12.5));
#402=CARTESIAN_POINT('Origin',(-109.984111347116,21.1286956946634,12.5));
#403=CARTESIAN_POINT('',(-112.234111347116,43.0409882994481,12.5));
#404=CARTESIAN_POINT('Origin',(-109.984111347116,43.0409882994481,12.5));
#405=CARTESIAN_POINT('Origin',(-114.734111347116,51.3909882994481,0.));
#406=CARTESIAN_POINT('',(-114.984111347116,51.1409882994482,25.));
#407=CARTESIAN_POINT('',(-114.484111347116,51.6409882994481,25.));
#408=CARTESIAN_POINT('',(-113.951203183851,52.1738964627135,25.));
#409=CARTESIAN_POINT('',(-114.484111347116,51.6409882994481,0.));
#410=CARTESIAN_POINT('',(-114.484111347116,51.6409882994481,0.));
#411=CARTESIAN_POINT('',(-114.984111347116,51.1409882994482,0.));
#412=CARTESIAN_POINT('',(-113.951203183851,52.1738964627135,0.));
#413=CARTESIAN_POINT('',(-114.984111347116,51.1409882994482,0.));
#414=CARTESIAN_POINT('Origin',(-107.871866449157,47.6603760545502,0.));
#415=CARTESIAN_POINT('',(-99.984111347116,51.6409882994481,0.));
#416=CARTESIAN_POINT('',(-99.984111347116,51.6409882994481,0.));
#417=CARTESIAN_POINT('',(-99.984111347116,47.6409882994481,0.));
#418=CARTESIAN_POINT('',(-99.984111347116,47.6409882994481,0.));
#419=CARTESIAN_POINT('',(-101.784111347116,47.6409882994481,0.));
#420=CARTESIAN_POINT('',(-101.784111347116,47.6409882994481,0.));
#421=CARTESIAN_POINT('',(-101.784111347116,48.1409882994481,0.));
#422=CARTESIAN_POINT('',(-101.784111347116,48.1409882994481,0.));
#423=CARTESIAN_POINT('',(-103.984111347116,48.1409882994481,0.));
#424=CARTESIAN_POINT('',(-103.984111347116,48.1409882994481,0.));
#425=CARTESIAN_POINT('',(-103.984111347116,43.0409882994481,0.));
#426=CARTESIAN_POINT('',(-103.984111347116,43.0409882994481,0.));
#427=CARTESIAN_POINT('',(-112.984111347116,43.0409882994481,0.));
#428=CARTESIAN_POINT('',(-112.984111347116,43.0409882994481,0.));
#429=CARTESIAN_POINT('',(-112.984111347116,42.6409882994481,0.));
#430=CARTESIAN_POINT('',(-112.984111347116,42.6409882994481,0.));
#431=CARTESIAN_POINT('',(-114.984111347116,42.6409882994481,0.));
#432=CARTESIAN_POINT('',(-114.984111347116,42.6409882994481,0.));
#433=CARTESIAN_POINT('',(-114.984111347116,51.6409882994481,0.));
#434=CARTESIAN_POINT('Origin',(-114.984111347116,51.6409882994481,0.));
#435=CARTESIAN_POINT('',(-99.984111347116,51.6409882994481,25.));
#436=CARTESIAN_POINT('',(-99.984111347116,51.6409882994481,25.));
#437=CARTESIAN_POINT('',(-99.984111347116,51.6409882994481,0.));
#438=CARTESIAN_POINT('Origin',(-99.984111347116,51.6409882994481,0.));
#439=CARTESIAN_POINT('',(-99.984111347116,47.6409882994481,25.));
#440=CARTESIAN_POINT('',(-99.984111347116,47.6409882994481,25.));
#441=CARTESIAN_POINT('',(-99.984111347116,47.6409882994481,0.));
#442=CARTESIAN_POINT('Origin',(-99.984111347116,47.6409882994481,0.));
#443=CARTESIAN_POINT('',(-101.784111347116,47.6409882994481,25.));
#444=CARTESIAN_POINT('',(-101.784111347116,47.6409882994481,25.));
#445=CARTESIAN_POINT('',(-101.784111347116,47.6409882994481,0.));
#446=CARTESIAN_POINT('Origin',(-101.784111347116,47.6409882994481,0.));
#447=CARTESIAN_POINT('',(-101.784111347116,48.1409882994481,25.));
#448=CARTESIAN_POINT('',(-101.784111347116,48.1409882994481,25.));
#449=CARTESIAN_POINT('',(-101.784111347116,48.1409882994481,0.));
#450=CARTESIAN_POINT('Origin',(-101.784111347116,48.1409882994481,0.));
#451=CARTESIAN_POINT('',(-103.984111347116,48.1409882994481,25.));
#452=CARTESIAN_POINT('',(-103.984111347116,48.1409882994481,25.));
#453=CARTESIAN_POINT('',(-103.984111347116,48.1409882994481,0.));
#454=CARTESIAN_POINT('Origin',(-103.984111347116,48.1409882994481,0.));
#455=CARTESIAN_POINT('',(-103.984111347116,43.0409882994481,25.));
#456=CARTESIAN_POINT('',(-103.984111347116,43.0409882994481,25.));
#457=CARTESIAN_POINT('',(-103.984111347116,43.0409882994481,0.));
#458=CARTESIAN_POINT('Origin',(-103.984111347116,43.0409882994481,0.));
#459=CARTESIAN_POINT('',(-112.984111347116,43.0409882994481,25.));
#460=CARTESIAN_POINT('',(-112.984111347116,43.0409882994481,25.));
#461=CARTESIAN_POINT('',(-112.984111347116,43.0409882994481,0.));
#462=CARTESIAN_POINT('Origin',(-112.984111347116,43.0409882994481,0.));
#463=CARTESIAN_POINT('',(-112.984111347116,42.6409882994481,25.));
#464=CARTESIAN_POINT('',(-112.984111347116,42.6409882994481,25.));
#465=CARTESIAN_POINT('',(-112.984111347116,42.6409882994481,0.));
#466=CARTESIAN_POINT('Origin',(-112.984111347116,42.6409882994481,0.));
#467=CARTESIAN_POINT('',(-114.984111347116,42.6409882994481,25.));
#468=CARTESIAN_POINT('',(-114.984111347116,42.6409882994481,25.));
#469=CARTESIAN_POINT('',(-114.984111347116,42.6409882994481,0.));
#470=CARTESIAN_POINT('Origin',(-114.984111347116,42.6409882994481,0.));
#471=CARTESIAN_POINT('',(-114.984111347116,51.6409882994481,25.));
#472=CARTESIAN_POINT('Origin',(-107.871866449157,47.6603760545502,25.));
#473=UNCERTAINTY_MEASURE_WITH_UNIT(LENGTH_MEASURE(0.01),#477,
'DISTANCE_ACCURACY_VALUE',
'Maximum model space distance between geometric entities at asserted c
onnectivities');
#474=UNCERTAINTY_MEASURE_WITH_UNIT(LENGTH_MEASURE(1.E-6),#477,
'DISTANCE_ACCURACY_VALUE',
'Maximum model space distance between geometric entities at asserted c
onnectivities');
#475=(
GEOMETRIC_REPRESENTATION_CONTEXT(3)
GLOBAL_UNCERTAINTY_ASSIGNED_CONTEXT((#473))
GLOBAL_UNIT_ASSIGNED_CONTEXT((#477,#480,#478))
REPRESENTATION_CONTEXT('','3D')
);
#476=(
GEOMETRIC_REPRESENTATION_CONTEXT(3)
GLOBAL_UNCERTAINTY_ASSIGNED_CONTEXT((#474))
GLOBAL_UNIT_ASSIGNED_CONTEXT((#477,#480,#478))
REPRESENTATION_CONTEXT('','3D')
);
#477=(
LENGTH_UNIT()
NAMED_UNIT(*)
SI_UNIT(.MILLI.,.METRE.)
);
#478=(
NAMED_UNIT(*)
SI_UNIT($,.STERADIAN.)
SOLID_ANGLE_UNIT()
);
#479=DIMENSIONAL_EXPONENTS(0.,0.,0.,0.,0.,0.,0.);
#480=(
CONVERSION_BASED_UNIT('degree',#482)
NAMED_UNIT(#479)
PLANE_ANGLE_UNIT()
);
#481=(
NAMED_UNIT(*)
PLANE_ANGLE_UNIT()
SI_UNIT($,.RADIAN.)
);
#482=PLANE_ANGLE_MEASURE_WITH_UNIT(PLANE_ANGLE_MEASURE(0.01745329252),#481);
#483=SHAPE_DEFINITION_REPRESENTATION(#484,#485);
#484=PRODUCT_DEFINITION_SHAPE('',$,#487);
#485=SHAPE_REPRESENTATION('',(#297),#475);
#486=PRODUCT_DEFINITION_CONTEXT('part definition',#491,'design');
#487=PRODUCT_DEFINITION('CAD_46994','CAD_46994',#488,#486);
#488=PRODUCT_DEFINITION_FORMATION('',$,#493);
#489=PRODUCT_RELATED_PRODUCT_CATEGORY('CAD_46994','CAD_46994',(#493));
#490=APPLICATION_PROTOCOL_DEFINITION('international standard',
'automotive_design',2009,#491);
#491=APPLICATION_CONTEXT(
'Core Data for Automotive Mechanical Design Process');
#492=PRODUCT_CONTEXT('part definition',#491,'mechanical');
#493=PRODUCT('CAD_46994','CAD_46994',$,(#492));
#494=PRESENTATION_STYLE_ASSIGNMENT((#495));
#495=SURFACE_STYLE_USAGE(.BOTH.,#496);
#496=SURFACE_SIDE_STYLE('',(#497));
#497=SURFACE_STYLE_FILL_AREA(#498);
#498=FILL_AREA_STYLE('',(#499));
#499=FILL_AREA_STYLE_COLOUR('',#500);
#500=COLOUR_RGB('',0.847058823529412,0.83921568627451,0.83921568627451);
ENDSEC;
END-ISO-10303-21;
