ISO-10303-21;
HEADER;
/* Generated by software containing ST-Developer
 * from STEP Tools, Inc. (www.steptools.com) 
 */

FILE_DESCRIPTION(
/* description */ (''),
/* implementation_level */ '2;1');

FILE_NAME(
/* name */ 
'X:\\VIRI ZA WEB\\CAD DATOTEKE\\LINEARNE ENOTE UNIMOTION\\DODATNA OPRE
MA ZA LINEARNE ENOTE\\POVEZOVALNI ELEMENTI\\MATICE\\MATICA KLADIVASTA 
8 - M6\\izvoz\\CAD_5746.stp',
/* time_stamp */ '2016-04-16T08:10:22+02:00',
/* author */ ('Hypex'),
/* organization */ ('Hypex'),
/* preprocessor_version */ 'ST-DEVELOPER v16.1',
/* originating_system */ 'Autodesk Inventor 2016',
/* authorisation */ '');

FILE_SCHEMA (('AUTOMOTIVE_DESIGN { 1 0 10303 214 3 1 1 }'));
ENDSEC;

DATA;
#10=MECHANICAL_DESIGN_GEOMETRIC_PRESENTATION_REPRESENTATION('',(#13),#473);
#11=SHAPE_REPRESENTATION_RELATIONSHIP('SRR','None',#482,#12);
#12=ADVANCED_BREP_SHAPE_REPRESENTATION('',(#14),#472);
#13=STYLED_ITEM('',(#491),#14);
#14=MANIFOLD_SOLID_BREP('Solid1',#291);
#15=LINE('',#399,#47);
#16=LINE('',#401,#48);
#17=LINE('',#403,#49);
#18=LINE('',#404,#50);
#19=LINE('',#409,#51);
#20=LINE('',#414,#52);
#21=LINE('',#416,#53);
#22=LINE('',#418,#54);
#23=LINE('',#419,#55);
#24=LINE('',#424,#56);
#25=LINE('',#427,#57);
#26=LINE('',#428,#58);
#27=LINE('',#431,#59);
#28=LINE('',#433,#60);
#29=LINE('',#434,#61);
#30=LINE('',#437,#62);
#31=LINE('',#439,#63);
#32=LINE('',#440,#64);
#33=LINE('',#443,#65);
#34=LINE('',#445,#66);
#35=LINE('',#446,#67);
#36=LINE('',#449,#68);
#37=LINE('',#451,#69);
#38=LINE('',#452,#70);
#39=LINE('',#455,#71);
#40=LINE('',#457,#72);
#41=LINE('',#458,#73);
#42=LINE('',#461,#74);
#43=LINE('',#463,#75);
#44=LINE('',#464,#76);
#45=LINE('',#466,#77);
#46=LINE('',#467,#78);
#47=VECTOR('',#324,3.8);
#48=VECTOR('',#325,2.8);
#49=VECTOR('',#326,3.8);
#50=VECTOR('',#327,2.8);
#51=VECTOR('',#332,2.8);
#52=VECTOR('',#337,3.8);
#53=VECTOR('',#338,2.8);
#54=VECTOR('',#339,3.8);
#55=VECTOR('',#340,2.8);
#56=VECTOR('',#345,2.8);
#57=VECTOR('',#350,4.);
#58=VECTOR('',#351,4.);
#59=VECTOR('',#354,7.9);
#60=VECTOR('',#355,7.8);
#61=VECTOR('',#356,3.9);
#62=VECTOR('',#359,7.9);
#63=VECTOR('',#360,7.8);
#64=VECTOR('',#361,3.9);
#65=VECTOR('',#364,2.);
#66=VECTOR('',#365,7.8);
#67=VECTOR('',#366,2.);
#68=VECTOR('',#369,3.64314424638937);
#69=VECTOR('',#370,7.8);
#70=VECTOR('',#371,3.64314424638937);
#71=VECTOR('',#374,10.5);
#72=VECTOR('',#375,7.8);
#73=VECTOR('',#376,10.5);
#74=VECTOR('',#379,3.64314424638938);
#75=VECTOR('',#380,7.8);
#76=VECTOR('',#381,3.64314424638938);
#77=VECTOR('',#384,2.);
#78=VECTOR('',#385,2.);
#79=PLANE('',#296);
#80=PLANE('',#300);
#81=PLANE('',#304);
#82=PLANE('',#305);
#83=PLANE('',#306);
#84=PLANE('',#307);
#85=PLANE('',#308);
#86=PLANE('',#309);
#87=PLANE('',#310);
#88=PLANE('',#311);
#89=PLANE('',#312);
#90=PLANE('',#313);
#91=FACE_BOUND('',#110,.T.);
#92=FACE_BOUND('',#116,.T.);
#93=FACE_BOUND('',#122,.T.);
#94=FACE_OUTER_BOUND('',#109,.T.);
#95=FACE_OUTER_BOUND('',#111,.T.);
#96=FACE_OUTER_BOUND('',#112,.T.);
#97=FACE_OUTER_BOUND('',#113,.T.);
#98=FACE_OUTER_BOUND('',#114,.T.);
#99=FACE_OUTER_BOUND('',#115,.T.);
#100=FACE_OUTER_BOUND('',#117,.T.);
#101=FACE_OUTER_BOUND('',#118,.T.);
#102=FACE_OUTER_BOUND('',#119,.T.);
#103=FACE_OUTER_BOUND('',#120,.T.);
#104=FACE_OUTER_BOUND('',#121,.T.);
#105=FACE_OUTER_BOUND('',#123,.T.);
#106=FACE_OUTER_BOUND('',#124,.T.);
#107=FACE_OUTER_BOUND('',#125,.T.);
#108=FACE_OUTER_BOUND('',#126,.T.);
#109=EDGE_LOOP('',(#197));
#110=EDGE_LOOP('',(#198));
#111=EDGE_LOOP('',(#199,#200,#201,#202));
#112=EDGE_LOOP('',(#203,#204,#205,#206));
#113=EDGE_LOOP('',(#207,#208,#209,#210));
#114=EDGE_LOOP('',(#211,#212,#213,#214));
#115=EDGE_LOOP('',(#215,#216,#217,#218,#219,#220));
#116=EDGE_LOOP('',(#221));
#117=EDGE_LOOP('',(#222,#223,#224,#225,#226));
#118=EDGE_LOOP('',(#227,#228,#229,#230,#231));
#119=EDGE_LOOP('',(#232,#233,#234,#235));
#120=EDGE_LOOP('',(#236,#237,#238,#239));
#121=EDGE_LOOP('',(#240,#241,#242,#243));
#122=EDGE_LOOP('',(#244));
#123=EDGE_LOOP('',(#245,#246,#247,#248));
#124=EDGE_LOOP('',(#249,#250,#251,#252));
#125=EDGE_LOOP('',(#253,#254,#255,#256,#257,#258,#259,#260,#261,#262));
#126=EDGE_LOOP('',(#263,#264,#265,#266,#267,#268,#269,#270,#271,#272));
#127=CIRCLE('',#294,2.4585);
#128=CIRCLE('',#295,2.4585);
#129=CIRCLE('',#298,4.);
#130=CIRCLE('',#299,4.);
#131=CIRCLE('',#302,4.);
#132=CIRCLE('',#303,4.);
#133=VERTEX_POINT('',#392);
#134=VERTEX_POINT('',#394);
#135=VERTEX_POINT('',#397);
#136=VERTEX_POINT('',#398);
#137=VERTEX_POINT('',#400);
#138=VERTEX_POINT('',#402);
#139=VERTEX_POINT('',#406);
#140=VERTEX_POINT('',#408);
#141=VERTEX_POINT('',#412);
#142=VERTEX_POINT('',#413);
#143=VERTEX_POINT('',#415);
#144=VERTEX_POINT('',#417);
#145=VERTEX_POINT('',#421);
#146=VERTEX_POINT('',#423);
#147=VERTEX_POINT('',#430);
#148=VERTEX_POINT('',#432);
#149=VERTEX_POINT('',#436);
#150=VERTEX_POINT('',#438);
#151=VERTEX_POINT('',#442);
#152=VERTEX_POINT('',#444);
#153=VERTEX_POINT('',#448);
#154=VERTEX_POINT('',#450);
#155=VERTEX_POINT('',#454);
#156=VERTEX_POINT('',#456);
#157=VERTEX_POINT('',#460);
#158=VERTEX_POINT('',#462);
#159=EDGE_CURVE('',#133,#133,#127,.T.);
#160=EDGE_CURVE('',#134,#134,#128,.T.);
#161=EDGE_CURVE('',#135,#136,#15,.T.);
#162=EDGE_CURVE('',#137,#136,#16,.T.);
#163=EDGE_CURVE('',#138,#137,#17,.T.);
#164=EDGE_CURVE('',#138,#135,#18,.T.);
#165=EDGE_CURVE('',#136,#139,#129,.T.);
#166=EDGE_CURVE('',#140,#139,#19,.T.);
#167=EDGE_CURVE('',#137,#140,#130,.T.);
#168=EDGE_CURVE('',#141,#142,#20,.T.);
#169=EDGE_CURVE('',#143,#142,#21,.T.);
#170=EDGE_CURVE('',#144,#143,#22,.T.);
#171=EDGE_CURVE('',#144,#141,#23,.T.);
#172=EDGE_CURVE('',#142,#145,#131,.T.);
#173=EDGE_CURVE('',#146,#145,#24,.T.);
#174=EDGE_CURVE('',#143,#146,#132,.T.);
#175=EDGE_CURVE('',#145,#135,#25,.T.);
#176=EDGE_CURVE('',#139,#141,#26,.T.);
#177=EDGE_CURVE('',#140,#147,#27,.T.);
#178=EDGE_CURVE('',#148,#147,#28,.T.);
#179=EDGE_CURVE('',#138,#148,#29,.T.);
#180=EDGE_CURVE('',#149,#146,#30,.T.);
#181=EDGE_CURVE('',#149,#150,#31,.T.);
#182=EDGE_CURVE('',#150,#144,#32,.T.);
#183=EDGE_CURVE('',#147,#151,#33,.T.);
#184=EDGE_CURVE('',#152,#151,#34,.T.);
#185=EDGE_CURVE('',#148,#152,#35,.T.);
#186=EDGE_CURVE('',#151,#153,#36,.T.);
#187=EDGE_CURVE('',#154,#153,#37,.T.);
#188=EDGE_CURVE('',#152,#154,#38,.T.);
#189=EDGE_CURVE('',#153,#155,#39,.T.);
#190=EDGE_CURVE('',#156,#155,#40,.T.);
#191=EDGE_CURVE('',#154,#156,#41,.T.);
#192=EDGE_CURVE('',#155,#157,#42,.T.);
#193=EDGE_CURVE('',#158,#157,#43,.T.);
#194=EDGE_CURVE('',#156,#158,#44,.T.);
#195=EDGE_CURVE('',#157,#150,#45,.T.);
#196=EDGE_CURVE('',#158,#149,#46,.T.);
#197=ORIENTED_EDGE('',*,*,#159,.F.);
#198=ORIENTED_EDGE('',*,*,#160,.F.);
#199=ORIENTED_EDGE('',*,*,#161,.T.);
#200=ORIENTED_EDGE('',*,*,#162,.F.);
#201=ORIENTED_EDGE('',*,*,#163,.F.);
#202=ORIENTED_EDGE('',*,*,#164,.T.);
#203=ORIENTED_EDGE('',*,*,#165,.T.);
#204=ORIENTED_EDGE('',*,*,#166,.F.);
#205=ORIENTED_EDGE('',*,*,#167,.F.);
#206=ORIENTED_EDGE('',*,*,#162,.T.);
#207=ORIENTED_EDGE('',*,*,#168,.T.);
#208=ORIENTED_EDGE('',*,*,#169,.F.);
#209=ORIENTED_EDGE('',*,*,#170,.F.);
#210=ORIENTED_EDGE('',*,*,#171,.T.);
#211=ORIENTED_EDGE('',*,*,#172,.T.);
#212=ORIENTED_EDGE('',*,*,#173,.F.);
#213=ORIENTED_EDGE('',*,*,#174,.F.);
#214=ORIENTED_EDGE('',*,*,#169,.T.);
#215=ORIENTED_EDGE('',*,*,#161,.F.);
#216=ORIENTED_EDGE('',*,*,#175,.F.);
#217=ORIENTED_EDGE('',*,*,#172,.F.);
#218=ORIENTED_EDGE('',*,*,#168,.F.);
#219=ORIENTED_EDGE('',*,*,#176,.F.);
#220=ORIENTED_EDGE('',*,*,#165,.F.);
#221=ORIENTED_EDGE('',*,*,#160,.T.);
#222=ORIENTED_EDGE('',*,*,#167,.T.);
#223=ORIENTED_EDGE('',*,*,#177,.T.);
#224=ORIENTED_EDGE('',*,*,#178,.F.);
#225=ORIENTED_EDGE('',*,*,#179,.F.);
#226=ORIENTED_EDGE('',*,*,#163,.T.);
#227=ORIENTED_EDGE('',*,*,#170,.T.);
#228=ORIENTED_EDGE('',*,*,#174,.T.);
#229=ORIENTED_EDGE('',*,*,#180,.F.);
#230=ORIENTED_EDGE('',*,*,#181,.T.);
#231=ORIENTED_EDGE('',*,*,#182,.T.);
#232=ORIENTED_EDGE('',*,*,#183,.T.);
#233=ORIENTED_EDGE('',*,*,#184,.F.);
#234=ORIENTED_EDGE('',*,*,#185,.F.);
#235=ORIENTED_EDGE('',*,*,#178,.T.);
#236=ORIENTED_EDGE('',*,*,#186,.T.);
#237=ORIENTED_EDGE('',*,*,#187,.F.);
#238=ORIENTED_EDGE('',*,*,#188,.F.);
#239=ORIENTED_EDGE('',*,*,#184,.T.);
#240=ORIENTED_EDGE('',*,*,#189,.T.);
#241=ORIENTED_EDGE('',*,*,#190,.F.);
#242=ORIENTED_EDGE('',*,*,#191,.F.);
#243=ORIENTED_EDGE('',*,*,#187,.T.);
#244=ORIENTED_EDGE('',*,*,#159,.T.);
#245=ORIENTED_EDGE('',*,*,#192,.T.);
#246=ORIENTED_EDGE('',*,*,#193,.F.);
#247=ORIENTED_EDGE('',*,*,#194,.F.);
#248=ORIENTED_EDGE('',*,*,#190,.T.);
#249=ORIENTED_EDGE('',*,*,#195,.T.);
#250=ORIENTED_EDGE('',*,*,#181,.F.);
#251=ORIENTED_EDGE('',*,*,#196,.F.);
#252=ORIENTED_EDGE('',*,*,#193,.T.);
#253=ORIENTED_EDGE('',*,*,#183,.F.);
#254=ORIENTED_EDGE('',*,*,#177,.F.);
#255=ORIENTED_EDGE('',*,*,#166,.T.);
#256=ORIENTED_EDGE('',*,*,#176,.T.);
#257=ORIENTED_EDGE('',*,*,#171,.F.);
#258=ORIENTED_EDGE('',*,*,#182,.F.);
#259=ORIENTED_EDGE('',*,*,#195,.F.);
#260=ORIENTED_EDGE('',*,*,#192,.F.);
#261=ORIENTED_EDGE('',*,*,#189,.F.);
#262=ORIENTED_EDGE('',*,*,#186,.F.);
#263=ORIENTED_EDGE('',*,*,#180,.T.);
#264=ORIENTED_EDGE('',*,*,#173,.T.);
#265=ORIENTED_EDGE('',*,*,#175,.T.);
#266=ORIENTED_EDGE('',*,*,#164,.F.);
#267=ORIENTED_EDGE('',*,*,#179,.T.);
#268=ORIENTED_EDGE('',*,*,#185,.T.);
#269=ORIENTED_EDGE('',*,*,#188,.T.);
#270=ORIENTED_EDGE('',*,*,#191,.T.);
#271=ORIENTED_EDGE('',*,*,#194,.T.);
#272=ORIENTED_EDGE('',*,*,#196,.T.);
#273=CYLINDRICAL_SURFACE('',#293,2.4585);
#274=CYLINDRICAL_SURFACE('',#297,4.);
#275=CYLINDRICAL_SURFACE('',#301,4.);
#276=ADVANCED_FACE('',(#94,#91),#273,.F.);
#277=ADVANCED_FACE('',(#95),#79,.T.);
#278=ADVANCED_FACE('',(#96),#274,.T.);
#279=ADVANCED_FACE('',(#97),#80,.T.);
#280=ADVANCED_FACE('',(#98),#275,.T.);
#281=ADVANCED_FACE('',(#99,#92),#81,.T.);
#282=ADVANCED_FACE('',(#100),#82,.T.);
#283=ADVANCED_FACE('',(#101),#83,.T.);
#284=ADVANCED_FACE('',(#102),#84,.T.);
#285=ADVANCED_FACE('',(#103),#85,.T.);
#286=ADVANCED_FACE('',(#104,#93),#86,.T.);
#287=ADVANCED_FACE('',(#105),#87,.T.);
#288=ADVANCED_FACE('',(#106),#88,.T.);
#289=ADVANCED_FACE('',(#107),#89,.T.);
#290=ADVANCED_FACE('',(#108),#90,.F.);
#291=CLOSED_SHELL('',(#276,#277,#278,#279,#280,#281,#282,#283,#284,#285,
#286,#287,#288,#289,#290));
#292=AXIS2_PLACEMENT_3D('placement',#390,#314,#315);
#293=AXIS2_PLACEMENT_3D('',#391,#316,#317);
#294=AXIS2_PLACEMENT_3D('',#393,#318,#319);
#295=AXIS2_PLACEMENT_3D('',#395,#320,#321);
#296=AXIS2_PLACEMENT_3D('',#396,#322,#323);
#297=AXIS2_PLACEMENT_3D('',#405,#328,#329);
#298=AXIS2_PLACEMENT_3D('',#407,#330,#331);
#299=AXIS2_PLACEMENT_3D('',#410,#333,#334);
#300=AXIS2_PLACEMENT_3D('',#411,#335,#336);
#301=AXIS2_PLACEMENT_3D('',#420,#341,#342);
#302=AXIS2_PLACEMENT_3D('',#422,#343,#344);
#303=AXIS2_PLACEMENT_3D('',#425,#346,#347);
#304=AXIS2_PLACEMENT_3D('',#426,#348,#349);
#305=AXIS2_PLACEMENT_3D('',#429,#352,#353);
#306=AXIS2_PLACEMENT_3D('',#435,#357,#358);
#307=AXIS2_PLACEMENT_3D('',#441,#362,#363);
#308=AXIS2_PLACEMENT_3D('',#447,#367,#368);
#309=AXIS2_PLACEMENT_3D('',#453,#372,#373);
#310=AXIS2_PLACEMENT_3D('',#459,#377,#378);
#311=AXIS2_PLACEMENT_3D('',#465,#382,#383);
#312=AXIS2_PLACEMENT_3D('',#468,#386,#387);
#313=AXIS2_PLACEMENT_3D('',#469,#388,#389);
#314=DIRECTION('axis',(0.,0.,1.));
#315=DIRECTION('refdir',(1.,0.,0.));
#316=DIRECTION('center_axis',(7.34204476007858E-31,1.,3.79587835368044E-31));
#317=DIRECTION('ref_axis',(1.,-7.34204476007858E-31,-2.78695087765352E-61));
#318=DIRECTION('center_axis',(0.,1.,0.));
#319=DIRECTION('ref_axis',(1.,-7.34204476007858E-31,-2.78695087765352E-61));
#320=DIRECTION('center_axis',(-7.34204476007858E-31,-1.,-3.79587835368044E-31));
#321=DIRECTION('ref_axis',(1.,-7.34204476007858E-31,-2.78695087765352E-61));
#322=DIRECTION('center_axis',(1.,0.,-5.84327907697451E-16));
#323=DIRECTION('ref_axis',(-6.21724893790088E-16,0.,-1.));
#324=DIRECTION('',(5.84327907697451E-16,0.,1.));
#325=DIRECTION('',(0.,1.,0.));
#326=DIRECTION('',(5.84327907697451E-16,0.,1.));
#327=DIRECTION('',(0.,1.,0.));
#328=DIRECTION('center_axis',(0.,1.,0.));
#329=DIRECTION('ref_axis',(-2.77555756156289E-16,0.,1.));
#330=DIRECTION('center_axis',(0.,-1.,0.));
#331=DIRECTION('ref_axis',(-2.77555756156289E-16,0.,1.));
#332=DIRECTION('',(0.,1.,0.));
#333=DIRECTION('center_axis',(0.,-1.,0.));
#334=DIRECTION('ref_axis',(-2.77555756156289E-16,0.,1.));
#335=DIRECTION('center_axis',(-1.,0.,0.));
#336=DIRECTION('ref_axis',(0.,0.,1.));
#337=DIRECTION('',(0.,0.,-1.));
#338=DIRECTION('',(0.,1.,0.));
#339=DIRECTION('',(0.,0.,-1.));
#340=DIRECTION('',(0.,1.,0.));
#341=DIRECTION('center_axis',(0.,1.,0.));
#342=DIRECTION('ref_axis',(0.,0.,-1.));
#343=DIRECTION('center_axis',(0.,-1.,0.));
#344=DIRECTION('ref_axis',(0.,0.,-1.));
#345=DIRECTION('',(0.,1.,0.));
#346=DIRECTION('center_axis',(0.,-1.,0.));
#347=DIRECTION('ref_axis',(0.,0.,-1.));
#348=DIRECTION('center_axis',(7.34204476007858E-31,1.,3.79587835368044E-31));
#349=DIRECTION('ref_axis',(0.,0.,1.));
#350=DIRECTION('',(1.,0.,0.));
#351=DIRECTION('',(-1.,0.,0.));
#352=DIRECTION('center_axis',(0.,1.,0.));
#353=DIRECTION('ref_axis',(0.,0.,1.));
#354=DIRECTION('',(1.,0.,0.));
#355=DIRECTION('',(0.,0.,1.));
#356=DIRECTION('',(1.,0.,0.));
#357=DIRECTION('center_axis',(0.,1.,0.));
#358=DIRECTION('ref_axis',(0.,0.,1.));
#359=DIRECTION('',(1.,0.,0.));
#360=DIRECTION('',(0.,0.,1.));
#361=DIRECTION('',(1.,0.,0.));
#362=DIRECTION('center_axis',(1.,0.,0.));
#363=DIRECTION('ref_axis',(0.,0.,-1.));
#364=DIRECTION('',(0.,-1.,0.));
#365=DIRECTION('',(0.,0.,1.));
#366=DIRECTION('',(0.,-1.,0.));
#367=DIRECTION('center_axis',(0.686220426895719,-0.727393652509463,0.));
#368=DIRECTION('ref_axis',(0.,0.,-1.));
#369=DIRECTION('',(-0.727393652509463,-0.686220426895719,0.));
#370=DIRECTION('',(0.,0.,1.));
#371=DIRECTION('',(-0.727393652509463,-0.686220426895719,0.));
#372=DIRECTION('center_axis',(0.,-1.,0.));
#373=DIRECTION('ref_axis',(0.,0.,-1.));
#374=DIRECTION('',(-1.,0.,0.));
#375=DIRECTION('',(0.,0.,1.));
#376=DIRECTION('',(-1.,0.,0.));
#377=DIRECTION('center_axis',(-0.686220426895719,-0.727393652509463,0.));
#378=DIRECTION('ref_axis',(0.,0.,1.));
#379=DIRECTION('',(-0.727393652509463,0.686220426895719,0.));
#380=DIRECTION('',(0.,0.,1.));
#381=DIRECTION('',(-0.727393652509463,0.686220426895719,0.));
#382=DIRECTION('center_axis',(-1.,0.,0.));
#383=DIRECTION('ref_axis',(0.,0.,1.));
#384=DIRECTION('',(0.,1.,0.));
#385=DIRECTION('',(0.,1.,0.));
#386=DIRECTION('center_axis',(0.,0.,1.));
#387=DIRECTION('ref_axis',(1.,0.,0.));
#388=DIRECTION('center_axis',(0.,0.,1.));
#389=DIRECTION('ref_axis',(1.,0.,0.));
#390=CARTESIAN_POINT('',(0.,0.,0.));
#391=CARTESIAN_POINT('Origin',(-9.51704531273043,-17.3845840455326,3.9));
#392=CARTESIAN_POINT('',(-11.9755453127304,-5.61182860747385,3.9));
#393=CARTESIAN_POINT('Origin',(-9.51704531273043,-5.61182860747385,3.9));
#394=CARTESIAN_POINT('',(-7.05854531273043,1.68817139252615,3.9));
#395=CARTESIAN_POINT('Origin',(-9.51704531273043,1.68817139252615,3.9));
#396=CARTESIAN_POINT('Origin',(-5.51704531273043,-1.11182860747385,0.));
#397=CARTESIAN_POINT('',(-5.51704531273043,1.68817139252615,0.));
#398=CARTESIAN_POINT('',(-5.51704531273043,1.68817139252615,3.8));
#399=CARTESIAN_POINT('',(-5.51704531273043,1.68817139252615,3.8));
#400=CARTESIAN_POINT('',(-5.51704531273043,-1.11182860747385,3.8));
#401=CARTESIAN_POINT('',(-5.51704531273043,-1.11182860747385,3.8));
#402=CARTESIAN_POINT('',(-5.51704531273043,-1.11182860747385,0.));
#403=CARTESIAN_POINT('',(-5.51704531273043,-1.11182860747385,-3.47675105079983E-15));
#404=CARTESIAN_POINT('',(-5.51704531273043,-1.11182860747385,0.));
#405=CARTESIAN_POINT('Origin',(-9.51704531273043,-1.11182860747385,3.8));
#406=CARTESIAN_POINT('',(-9.51704531273043,1.68817139252615,7.8));
#407=CARTESIAN_POINT('Origin',(-9.51704531273043,1.68817139252615,3.8));
#408=CARTESIAN_POINT('',(-9.51704531273043,-1.11182860747385,7.8));
#409=CARTESIAN_POINT('',(-9.51704531273043,-1.11182860747385,7.8));
#410=CARTESIAN_POINT('Origin',(-9.51704531273043,-1.11182860747385,3.8));
#411=CARTESIAN_POINT('Origin',(-13.5170453127304,-1.11182860747385,7.8));
#412=CARTESIAN_POINT('',(-13.5170453127304,1.68817139252615,7.8));
#413=CARTESIAN_POINT('',(-13.5170453127304,1.68817139252615,4.));
#414=CARTESIAN_POINT('',(-13.5170453127304,1.68817139252615,4.));
#415=CARTESIAN_POINT('',(-13.5170453127304,-1.11182860747385,4.));
#416=CARTESIAN_POINT('',(-13.5170453127304,-1.11182860747385,4.));
#417=CARTESIAN_POINT('',(-13.5170453127304,-1.11182860747385,7.8));
#418=CARTESIAN_POINT('',(-13.5170453127304,-1.11182860747385,3.9));
#419=CARTESIAN_POINT('',(-13.5170453127304,-1.11182860747385,7.8));
#420=CARTESIAN_POINT('Origin',(-9.51704531273043,-1.11182860747385,4.));
#421=CARTESIAN_POINT('',(-9.51704531273043,1.68817139252615,0.));
#422=CARTESIAN_POINT('Origin',(-9.51704531273043,1.68817139252615,4.));
#423=CARTESIAN_POINT('',(-9.51704531273043,-1.11182860747385,0.));
#424=CARTESIAN_POINT('',(-9.51704531273043,-1.11182860747385,0.));
#425=CARTESIAN_POINT('Origin',(-9.51704531273043,-1.11182860747385,4.));
#426=CARTESIAN_POINT('Origin',(-9.51704531273043,1.68817139252615,3.9));
#427=CARTESIAN_POINT('',(-1.61704531273043,1.68817139252615,0.));
#428=CARTESIAN_POINT('',(-17.4170453127304,1.68817139252615,7.8));
#429=CARTESIAN_POINT('Origin',(-17.4170453127304,-1.11182860747385,0.));
#430=CARTESIAN_POINT('',(-1.61704531273043,-1.11182860747385,7.8));
#431=CARTESIAN_POINT('',(-17.4170453127304,-1.11182860747385,7.8));
#432=CARTESIAN_POINT('',(-1.61704531273043,-1.11182860747385,0.));
#433=CARTESIAN_POINT('',(-1.61704531273043,-1.11182860747385,0.));
#434=CARTESIAN_POINT('',(-17.4170453127304,-1.11182860747385,0.));
#435=CARTESIAN_POINT('Origin',(-17.4170453127304,-1.11182860747385,0.));
#436=CARTESIAN_POINT('',(-17.4170453127304,-1.11182860747385,0.));
#437=CARTESIAN_POINT('',(-17.4170453127304,-1.11182860747385,0.));
#438=CARTESIAN_POINT('',(-17.4170453127304,-1.11182860747385,7.8));
#439=CARTESIAN_POINT('',(-17.4170453127304,-1.11182860747385,0.));
#440=CARTESIAN_POINT('',(-17.4170453127304,-1.11182860747385,7.8));
#441=CARTESIAN_POINT('Origin',(-1.61704531273043,-1.11182860747385,0.));
#442=CARTESIAN_POINT('',(-1.61704531273043,-3.11182860747385,7.8));
#443=CARTESIAN_POINT('',(-1.61704531273043,-1.11182860747385,7.8));
#444=CARTESIAN_POINT('',(-1.61704531273043,-3.11182860747385,0.));
#445=CARTESIAN_POINT('',(-1.61704531273043,-3.11182860747385,0.));
#446=CARTESIAN_POINT('',(-1.61704531273043,-1.11182860747385,0.));
#447=CARTESIAN_POINT('Origin',(-1.61704531273043,-3.11182860747385,0.));
#448=CARTESIAN_POINT('',(-4.26704531273043,-5.61182860747385,7.8));
#449=CARTESIAN_POINT('',(-1.61704531273043,-3.11182860747385,7.8));
#450=CARTESIAN_POINT('',(-4.26704531273043,-5.61182860747385,0.));
#451=CARTESIAN_POINT('',(-4.26704531273043,-5.61182860747385,0.));
#452=CARTESIAN_POINT('',(-1.61704531273043,-3.11182860747385,0.));
#453=CARTESIAN_POINT('Origin',(-4.26704531273043,-5.61182860747385,0.));
#454=CARTESIAN_POINT('',(-14.7670453127304,-5.61182860747385,7.8));
#455=CARTESIAN_POINT('',(-4.26704531273043,-5.61182860747385,7.8));
#456=CARTESIAN_POINT('',(-14.7670453127304,-5.61182860747385,0.));
#457=CARTESIAN_POINT('',(-14.7670453127304,-5.61182860747385,0.));
#458=CARTESIAN_POINT('',(-4.26704531273043,-5.61182860747385,0.));
#459=CARTESIAN_POINT('Origin',(-14.7670453127304,-5.61182860747385,0.));
#460=CARTESIAN_POINT('',(-17.4170453127304,-3.11182860747385,7.8));
#461=CARTESIAN_POINT('',(-14.7670453127304,-5.61182860747385,7.8));
#462=CARTESIAN_POINT('',(-17.4170453127304,-3.11182860747385,0.));
#463=CARTESIAN_POINT('',(-17.4170453127304,-3.11182860747385,0.));
#464=CARTESIAN_POINT('',(-14.7670453127304,-5.61182860747385,0.));
#465=CARTESIAN_POINT('Origin',(-17.4170453127304,-3.11182860747385,0.));
#466=CARTESIAN_POINT('',(-17.4170453127304,-3.11182860747385,7.8));
#467=CARTESIAN_POINT('',(-17.4170453127304,-3.11182860747385,0.));
#468=CARTESIAN_POINT('Origin',(-9.51704531273043,-3.10538638096689,7.8));
#469=CARTESIAN_POINT('Origin',(-9.51704531273043,-3.10538638096689,0.));
#470=UNCERTAINTY_MEASURE_WITH_UNIT(LENGTH_MEASURE(0.01),#474,
'DISTANCE_ACCURACY_VALUE',
'Maximum model space distance between geometric entities at asserted c
onnectivities');
#471=UNCERTAINTY_MEASURE_WITH_UNIT(LENGTH_MEASURE(1.E-6),#474,
'DISTANCE_ACCURACY_VALUE',
'Maximum model space distance between geometric entities at asserted c
onnectivities');
#472=(
GEOMETRIC_REPRESENTATION_CONTEXT(3)
GLOBAL_UNCERTAINTY_ASSIGNED_CONTEXT((#470))
GLOBAL_UNIT_ASSIGNED_CONTEXT((#474,#477,#475))
REPRESENTATION_CONTEXT('','3D')
);
#473=(
GEOMETRIC_REPRESENTATION_CONTEXT(3)
GLOBAL_UNCERTAINTY_ASSIGNED_CONTEXT((#471))
GLOBAL_UNIT_ASSIGNED_CONTEXT((#474,#477,#475))
REPRESENTATION_CONTEXT('','3D')
);
#474=(
LENGTH_UNIT()
NAMED_UNIT(*)
SI_UNIT(.MILLI.,.METRE.)
);
#475=(
NAMED_UNIT(*)
SI_UNIT($,.STERADIAN.)
SOLID_ANGLE_UNIT()
);
#476=DIMENSIONAL_EXPONENTS(0.,0.,0.,0.,0.,0.,0.);
#477=(
CONVERSION_BASED_UNIT('degree',#479)
NAMED_UNIT(#476)
PLANE_ANGLE_UNIT()
);
#478=(
NAMED_UNIT(*)
PLANE_ANGLE_UNIT()
SI_UNIT($,.RADIAN.)
);
#479=PLANE_ANGLE_MEASURE_WITH_UNIT(PLANE_ANGLE_MEASURE(0.01745329252),#478);
#480=SHAPE_DEFINITION_REPRESENTATION(#481,#482);
#481=PRODUCT_DEFINITION_SHAPE('',$,#484);
#482=SHAPE_REPRESENTATION('',(#292),#472);
#483=PRODUCT_DEFINITION_CONTEXT('part definition',#488,'design');
#484=PRODUCT_DEFINITION('CAD_5746','CAD_5746',#485,#483);
#485=PRODUCT_DEFINITION_FORMATION('',$,#490);
#486=PRODUCT_RELATED_PRODUCT_CATEGORY('CAD_5746','CAD_5746',(#490));
#487=APPLICATION_PROTOCOL_DEFINITION('international standard',
'automotive_design',2009,#488);
#488=APPLICATION_CONTEXT(
'Core Data for Automotive Mechanical Design Process');
#489=PRODUCT_CONTEXT('part definition',#488,'mechanical');
#490=PRODUCT('CAD_5746','CAD_5746',$,(#489));
#491=PRESENTATION_STYLE_ASSIGNMENT((#492));
#492=SURFACE_STYLE_USAGE(.BOTH.,#493);
#493=SURFACE_SIDE_STYLE('',(#494));
#494=SURFACE_STYLE_FILL_AREA(#495);
#495=FILL_AREA_STYLE('',(#496));
#496=FILL_AREA_STYLE_COLOUR('',#497);
#497=COLOUR_RGB('',0.67843137254902,0.768627450980392,0.811764705882353);
ENDSEC;
END-ISO-10303-21;
