ISO-10303-21;
HEADER;
/* Generated by software containing ST-Developer
 * from STEP Tools, Inc. (www.steptools.com) 
 */

FILE_DESCRIPTION(
/* description */ (''),
/* implementation_level */ '2;1');

FILE_NAME(
/* name */ 'C:\\Users\\Probic\\Desktop\\AAC HYPEX 3D\\izvoz\\CAD_9216.
stp',
/* time_stamp */ '2017-10-24T09:57:38+02:00',
/* author */ ('Hypex'),
/* organization */ ('Hypex'),
/* preprocessor_version */ 'ST-DEVELOPER v16.1',
/* originating_system */ 'Autodesk Inventor 2016',
/* authorisation */ '');

FILE_SCHEMA (('AUTOMOTIVE_DESIGN { 1 0 10303 214 3 1 1 }'));
ENDSEC;

DATA;
#10=MECHANICAL_DESIGN_GEOMETRIC_PRESENTATION_REPRESENTATION('',(#13),#529);
#11=SHAPE_REPRESENTATION_RELATIONSHIP('SRR','None',#538,#12);
#12=ADVANCED_BREP_SHAPE_REPRESENTATION('',(#14),#528);
#13=STYLED_ITEM('',(#547),#14);
#14=MANIFOLD_SOLID_BREP('Solid1',#294);
#15=SPHERICAL_SURFACE('',#334,12.);
#16=(
BOUNDED_CURVE()
B_SPLINE_CURVE(2,(#463,#464,#465),.UNSPECIFIED.,.F.,.F.)
B_SPLINE_CURVE_WITH_KNOTS((3,3),(0.,0.766167952874718),.UNSPECIFIED.)
CURVE()
GEOMETRIC_REPRESENTATION_ITEM()
RATIONAL_B_SPLINE_CURVE((1.,1.04431986693398,1.))
REPRESENTATION_ITEM('')
);
#17=(
BOUNDED_CURVE()
B_SPLINE_CURVE(2,(#468,#469,#470),.UNSPECIFIED.,.F.,.F.)
B_SPLINE_CURVE_WITH_KNOTS((3,3),(0.,0.766167952874718),.UNSPECIFIED.)
CURVE()
GEOMETRIC_REPRESENTATION_ITEM()
RATIONAL_B_SPLINE_CURVE((1.,1.04431986693398,1.))
REPRESENTATION_ITEM('')
);
#18=(
BOUNDED_CURVE()
B_SPLINE_CURVE(2,(#476,#477,#478),.UNSPECIFIED.,.F.,.F.)
B_SPLINE_CURVE_WITH_KNOTS((3,3),(0.,0.79333962153799),.UNSPECIFIED.)
CURVE()
GEOMETRIC_REPRESENTATION_ITEM()
RATIONAL_B_SPLINE_CURVE((1.,1.14285714285714,1.))
REPRESENTATION_ITEM('')
);
#19=(
BOUNDED_CURVE()
B_SPLINE_CURVE(2,(#487,#488,#489),.UNSPECIFIED.,.F.,.F.)
B_SPLINE_CURVE_WITH_KNOTS((3,3),(0.,0.79333962153799),.UNSPECIFIED.)
CURVE()
GEOMETRIC_REPRESENTATION_ITEM()
RATIONAL_B_SPLINE_CURVE((1.,1.14285714285714,1.))
REPRESENTATION_ITEM('')
);
#20=(
BOUNDED_CURVE()
B_SPLINE_CURVE(2,(#500,#501,#502),.UNSPECIFIED.,.F.,.F.)
B_SPLINE_CURVE_WITH_KNOTS((3,3),(0.,0.766167952874718),.UNSPECIFIED.)
CURVE()
GEOMETRIC_REPRESENTATION_ITEM()
RATIONAL_B_SPLINE_CURVE((1.,1.04431986693398,1.))
REPRESENTATION_ITEM('')
);
#21=(
BOUNDED_CURVE()
B_SPLINE_CURVE(2,(#505,#506,#507),.UNSPECIFIED.,.F.,.F.)
B_SPLINE_CURVE_WITH_KNOTS((3,3),(0.,0.766167952874718),.UNSPECIFIED.)
CURVE()
GEOMETRIC_REPRESENTATION_ITEM()
RATIONAL_B_SPLINE_CURVE((1.,1.04431986693398,1.))
REPRESENTATION_ITEM('')
);
#22=LINE('',#460,#30);
#23=LINE('',#474,#31);
#24=LINE('',#480,#32);
#25=LINE('',#481,#33);
#26=LINE('',#485,#34);
#27=LINE('',#491,#35);
#28=LINE('',#492,#36);
#29=LINE('',#497,#37);
#30=VECTOR('',#374,8.67467578644874);
#31=VECTOR('',#381,5.);
#32=VECTOR('',#382,5.);
#33=VECTOR('',#383,7.74596669241483);
#34=VECTOR('',#386,5.);
#35=VECTOR('',#387,5.);
#36=VECTOR('',#388,7.74596669241483);
#37=VECTOR('',#393,8.67467578644874);
#38=ELLIPSE('',#312,11.6003850472555,6.25);
#39=ELLIPSE('',#318,11.6003850472555,6.25);
#40=CONICAL_SURFACE('',#307,1.66175,59.);
#41=CONICAL_SURFACE('',#328,8.17969736612373,32.6003015928008);
#42=CONICAL_SURFACE('',#336,8.17969736612373,32.6003015928008);
#43=CONICAL_SURFACE('',#337,7.125,49.3987053549955);
#44=CYLINDRICAL_SURFACE('',#301,4.);
#45=CYLINDRICAL_SURFACE('',#309,3.3235);
#46=CYLINDRICAL_SURFACE('',#321,8.);
#47=CYLINDRICAL_SURFACE('',#324,8.);
#48=CYLINDRICAL_SURFACE('',#331,6.25);
#49=PLANE('',#299);
#50=PLANE('',#306);
#51=PLANE('',#311);
#52=PLANE('',#313);
#53=PLANE('',#315);
#54=PLANE('',#316);
#55=PLANE('',#317);
#56=PLANE('',#319);
#57=PLANE('',#327);
#58=FACE_BOUND('',#91,.T.);
#59=FACE_BOUND('',#93,.T.);
#60=FACE_BOUND('',#95,.T.);
#61=FACE_BOUND('',#97,.T.);
#62=FACE_BOUND('',#99,.T.);
#63=FACE_BOUND('',#102,.T.);
#64=FACE_BOUND('',#105,.T.);
#65=FACE_BOUND('',#110,.T.);
#66=FACE_BOUND('',#114,.T.);
#67=FACE_BOUND('',#117,.T.);
#68=FACE_BOUND('',#121,.T.);
#69=FACE_OUTER_BOUND('',#90,.T.);
#70=FACE_OUTER_BOUND('',#92,.T.);
#71=FACE_OUTER_BOUND('',#94,.T.);
#72=FACE_OUTER_BOUND('',#96,.T.);
#73=FACE_OUTER_BOUND('',#98,.T.);
#74=FACE_OUTER_BOUND('',#100,.T.);
#75=FACE_OUTER_BOUND('',#101,.T.);
#76=FACE_OUTER_BOUND('',#103,.T.);
#77=FACE_OUTER_BOUND('',#104,.T.);
#78=FACE_OUTER_BOUND('',#106,.T.);
#79=FACE_OUTER_BOUND('',#107,.T.);
#80=FACE_OUTER_BOUND('',#108,.T.);
#81=FACE_OUTER_BOUND('',#109,.T.);
#82=FACE_OUTER_BOUND('',#111,.T.);
#83=FACE_OUTER_BOUND('',#112,.T.);
#84=FACE_OUTER_BOUND('',#113,.T.);
#85=FACE_OUTER_BOUND('',#115,.T.);
#86=FACE_OUTER_BOUND('',#116,.T.);
#87=FACE_OUTER_BOUND('',#118,.T.);
#88=FACE_OUTER_BOUND('',#119,.T.);
#89=FACE_OUTER_BOUND('',#120,.T.);
#90=EDGE_LOOP('',(#201));
#91=EDGE_LOOP('',(#202));
#92=EDGE_LOOP('',(#203));
#93=EDGE_LOOP('',(#204));
#94=EDGE_LOOP('',(#205));
#95=EDGE_LOOP('',(#206));
#96=EDGE_LOOP('',(#207));
#97=EDGE_LOOP('',(#208));
#98=EDGE_LOOP('',(#209));
#99=EDGE_LOOP('',(#210));
#100=EDGE_LOOP('',(#211));
#101=EDGE_LOOP('',(#212));
#102=EDGE_LOOP('',(#213));
#103=EDGE_LOOP('',(#214,#215));
#104=EDGE_LOOP('',(#216,#217,#218,#219));
#105=EDGE_LOOP('',(#220));
#106=EDGE_LOOP('',(#221,#222,#223,#224));
#107=EDGE_LOOP('',(#225,#226,#227,#228));
#108=EDGE_LOOP('',(#229,#230));
#109=EDGE_LOOP('',(#231,#232,#233,#234));
#110=EDGE_LOOP('',(#235));
#111=EDGE_LOOP('',(#236,#237,#238,#239));
#112=EDGE_LOOP('',(#240,#241,#242,#243));
#113=EDGE_LOOP('',(#244,#245,#246,#247));
#114=EDGE_LOOP('',(#248));
#115=EDGE_LOOP('',(#249,#250,#251,#252));
#116=EDGE_LOOP('',(#253,#254,#255,#256));
#117=EDGE_LOOP('',(#257));
#118=EDGE_LOOP('',(#258,#259,#260,#261));
#119=EDGE_LOOP('',(#262,#263,#264,#265));
#120=EDGE_LOOP('',(#266,#267,#268,#269));
#121=EDGE_LOOP('',(#270));
#122=CIRCLE('',#297,5.);
#123=CIRCLE('',#298,7.00000000000001);
#124=CIRCLE('',#300,4.);
#125=CIRCLE('',#302,4.);
#126=CIRCLE('',#304,5.);
#127=CIRCLE('',#305,7.00000000000001);
#128=CIRCLE('',#308,3.3235);
#129=CIRCLE('',#310,3.3235);
#130=CIRCLE('',#314,11.1242977306435);
#131=CIRCLE('',#320,11.1242977306435);
#132=CIRCLE('',#322,8.);
#133=CIRCLE('',#323,8.);
#134=CIRCLE('',#325,8.);
#135=CIRCLE('',#326,8.);
#136=CIRCLE('',#329,10.1093947322475);
#137=CIRCLE('',#330,6.25);
#138=CIRCLE('',#332,6.25);
#139=CIRCLE('',#333,6.25);
#140=CIRCLE('',#335,10.1093947322475);
#141=VERTEX_POINT('',#434);
#142=VERTEX_POINT('',#436);
#143=VERTEX_POINT('',#439);
#144=VERTEX_POINT('',#442);
#145=VERTEX_POINT('',#445);
#146=VERTEX_POINT('',#447);
#147=VERTEX_POINT('',#451);
#148=VERTEX_POINT('',#454);
#149=VERTEX_POINT('',#457);
#150=VERTEX_POINT('',#458);
#151=VERTEX_POINT('',#462);
#152=VERTEX_POINT('',#466);
#153=VERTEX_POINT('',#472);
#154=VERTEX_POINT('',#473);
#155=VERTEX_POINT('',#475);
#156=VERTEX_POINT('',#479);
#157=VERTEX_POINT('',#483);
#158=VERTEX_POINT('',#484);
#159=VERTEX_POINT('',#486);
#160=VERTEX_POINT('',#490);
#161=VERTEX_POINT('',#494);
#162=VERTEX_POINT('',#495);
#163=VERTEX_POINT('',#499);
#164=VERTEX_POINT('',#503);
#165=VERTEX_POINT('',#520);
#166=EDGE_CURVE('',#141,#141,#122,.T.);
#167=EDGE_CURVE('',#142,#142,#123,.T.);
#168=EDGE_CURVE('',#143,#143,#124,.T.);
#169=EDGE_CURVE('',#144,#144,#125,.T.);
#170=EDGE_CURVE('',#145,#145,#126,.T.);
#171=EDGE_CURVE('',#146,#146,#127,.T.);
#172=EDGE_CURVE('',#147,#147,#128,.T.);
#173=EDGE_CURVE('',#148,#148,#129,.T.);
#174=EDGE_CURVE('',#149,#150,#38,.T.);
#175=EDGE_CURVE('',#150,#149,#22,.T.);
#176=EDGE_CURVE('',#151,#149,#16,.T.);
#177=EDGE_CURVE('',#152,#151,#130,.T.);
#178=EDGE_CURVE('',#150,#152,#17,.T.);
#179=EDGE_CURVE('',#153,#154,#23,.T.);
#180=EDGE_CURVE('',#155,#153,#18,.T.);
#181=EDGE_CURVE('',#156,#155,#24,.T.);
#182=EDGE_CURVE('',#154,#156,#25,.T.);
#183=EDGE_CURVE('',#157,#158,#26,.T.);
#184=EDGE_CURVE('',#159,#157,#19,.T.);
#185=EDGE_CURVE('',#160,#159,#27,.T.);
#186=EDGE_CURVE('',#158,#160,#28,.T.);
#187=EDGE_CURVE('',#161,#162,#39,.T.);
#188=EDGE_CURVE('',#161,#162,#29,.T.);
#189=EDGE_CURVE('',#163,#161,#20,.T.);
#190=EDGE_CURVE('',#164,#163,#131,.T.);
#191=EDGE_CURVE('',#162,#164,#21,.T.);
#192=EDGE_CURVE('',#160,#154,#132,.T.);
#193=EDGE_CURVE('',#159,#153,#133,.T.);
#194=EDGE_CURVE('',#155,#157,#134,.T.);
#195=EDGE_CURVE('',#156,#158,#135,.T.);
#196=EDGE_CURVE('',#152,#163,#136,.T.);
#197=EDGE_CURVE('',#150,#161,#137,.T.);
#198=EDGE_CURVE('',#162,#149,#138,.T.);
#199=EDGE_CURVE('',#165,#165,#139,.T.);
#200=EDGE_CURVE('',#164,#151,#140,.T.);
#201=ORIENTED_EDGE('',*,*,#166,.T.);
#202=ORIENTED_EDGE('',*,*,#167,.F.);
#203=ORIENTED_EDGE('',*,*,#166,.F.);
#204=ORIENTED_EDGE('',*,*,#168,.T.);
#205=ORIENTED_EDGE('',*,*,#169,.T.);
#206=ORIENTED_EDGE('',*,*,#168,.F.);
#207=ORIENTED_EDGE('',*,*,#170,.F.);
#208=ORIENTED_EDGE('',*,*,#171,.F.);
#209=ORIENTED_EDGE('',*,*,#170,.T.);
#210=ORIENTED_EDGE('',*,*,#169,.F.);
#211=ORIENTED_EDGE('',*,*,#172,.T.);
#212=ORIENTED_EDGE('',*,*,#173,.F.);
#213=ORIENTED_EDGE('',*,*,#172,.F.);
#214=ORIENTED_EDGE('',*,*,#174,.F.);
#215=ORIENTED_EDGE('',*,*,#175,.F.);
#216=ORIENTED_EDGE('',*,*,#176,.F.);
#217=ORIENTED_EDGE('',*,*,#177,.F.);
#218=ORIENTED_EDGE('',*,*,#178,.F.);
#219=ORIENTED_EDGE('',*,*,#175,.T.);
#220=ORIENTED_EDGE('',*,*,#167,.T.);
#221=ORIENTED_EDGE('',*,*,#179,.F.);
#222=ORIENTED_EDGE('',*,*,#180,.F.);
#223=ORIENTED_EDGE('',*,*,#181,.F.);
#224=ORIENTED_EDGE('',*,*,#182,.F.);
#225=ORIENTED_EDGE('',*,*,#183,.F.);
#226=ORIENTED_EDGE('',*,*,#184,.F.);
#227=ORIENTED_EDGE('',*,*,#185,.F.);
#228=ORIENTED_EDGE('',*,*,#186,.F.);
#229=ORIENTED_EDGE('',*,*,#187,.F.);
#230=ORIENTED_EDGE('',*,*,#188,.T.);
#231=ORIENTED_EDGE('',*,*,#189,.F.);
#232=ORIENTED_EDGE('',*,*,#190,.F.);
#233=ORIENTED_EDGE('',*,*,#191,.F.);
#234=ORIENTED_EDGE('',*,*,#188,.F.);
#235=ORIENTED_EDGE('',*,*,#171,.T.);
#236=ORIENTED_EDGE('',*,*,#179,.T.);
#237=ORIENTED_EDGE('',*,*,#192,.F.);
#238=ORIENTED_EDGE('',*,*,#185,.T.);
#239=ORIENTED_EDGE('',*,*,#193,.T.);
#240=ORIENTED_EDGE('',*,*,#181,.T.);
#241=ORIENTED_EDGE('',*,*,#194,.T.);
#242=ORIENTED_EDGE('',*,*,#183,.T.);
#243=ORIENTED_EDGE('',*,*,#195,.F.);
#244=ORIENTED_EDGE('',*,*,#182,.T.);
#245=ORIENTED_EDGE('',*,*,#195,.T.);
#246=ORIENTED_EDGE('',*,*,#186,.T.);
#247=ORIENTED_EDGE('',*,*,#192,.T.);
#248=ORIENTED_EDGE('',*,*,#173,.T.);
#249=ORIENTED_EDGE('',*,*,#178,.T.);
#250=ORIENTED_EDGE('',*,*,#196,.T.);
#251=ORIENTED_EDGE('',*,*,#189,.T.);
#252=ORIENTED_EDGE('',*,*,#197,.F.);
#253=ORIENTED_EDGE('',*,*,#174,.T.);
#254=ORIENTED_EDGE('',*,*,#197,.T.);
#255=ORIENTED_EDGE('',*,*,#187,.T.);
#256=ORIENTED_EDGE('',*,*,#198,.T.);
#257=ORIENTED_EDGE('',*,*,#199,.F.);
#258=ORIENTED_EDGE('',*,*,#177,.T.);
#259=ORIENTED_EDGE('',*,*,#200,.F.);
#260=ORIENTED_EDGE('',*,*,#190,.T.);
#261=ORIENTED_EDGE('',*,*,#196,.F.);
#262=ORIENTED_EDGE('',*,*,#176,.T.);
#263=ORIENTED_EDGE('',*,*,#198,.F.);
#264=ORIENTED_EDGE('',*,*,#191,.T.);
#265=ORIENTED_EDGE('',*,*,#200,.T.);
#266=ORIENTED_EDGE('',*,*,#180,.T.);
#267=ORIENTED_EDGE('',*,*,#193,.F.);
#268=ORIENTED_EDGE('',*,*,#184,.T.);
#269=ORIENTED_EDGE('',*,*,#194,.F.);
#270=ORIENTED_EDGE('',*,*,#199,.T.);
#271=TOROIDAL_SURFACE('',#296,4.3597220734073,3.00601788846016);
#272=TOROIDAL_SURFACE('',#303,4.3597220734073,3.00601788846016);
#273=ADVANCED_FACE('',(#69,#58),#271,.T.);
#274=ADVANCED_FACE('',(#70,#59),#49,.F.);
#275=ADVANCED_FACE('',(#71,#60),#44,.F.);
#276=ADVANCED_FACE('',(#72,#61),#272,.T.);
#277=ADVANCED_FACE('',(#73,#62),#50,.T.);
#278=ADVANCED_FACE('',(#74),#40,.F.);
#279=ADVANCED_FACE('',(#75,#63),#45,.F.);
#280=ADVANCED_FACE('',(#76),#51,.F.);
#281=ADVANCED_FACE('',(#77,#64),#52,.F.);
#282=ADVANCED_FACE('',(#78),#53,.F.);
#283=ADVANCED_FACE('',(#79),#54,.F.);
#284=ADVANCED_FACE('',(#80),#55,.F.);
#285=ADVANCED_FACE('',(#81,#65),#56,.F.);
#286=ADVANCED_FACE('',(#82),#46,.T.);
#287=ADVANCED_FACE('',(#83),#47,.T.);
#288=ADVANCED_FACE('',(#84,#66),#57,.T.);
#289=ADVANCED_FACE('',(#85),#41,.T.);
#290=ADVANCED_FACE('',(#86,#67),#48,.T.);
#291=ADVANCED_FACE('',(#87),#15,.T.);
#292=ADVANCED_FACE('',(#88),#42,.T.);
#293=ADVANCED_FACE('',(#89,#68),#43,.T.);
#294=CLOSED_SHELL('',(#273,#274,#275,#276,#277,#278,#279,#280,#281,#282,
#283,#284,#285,#286,#287,#288,#289,#290,#291,#292,#293));
#295=AXIS2_PLACEMENT_3D('placement',#432,#338,#339);
#296=AXIS2_PLACEMENT_3D('',#433,#340,#341);
#297=AXIS2_PLACEMENT_3D('',#435,#342,#343);
#298=AXIS2_PLACEMENT_3D('',#437,#344,#345);
#299=AXIS2_PLACEMENT_3D('',#438,#346,#347);
#300=AXIS2_PLACEMENT_3D('',#440,#348,#349);
#301=AXIS2_PLACEMENT_3D('',#441,#350,#351);
#302=AXIS2_PLACEMENT_3D('',#443,#352,#353);
#303=AXIS2_PLACEMENT_3D('',#444,#354,#355);
#304=AXIS2_PLACEMENT_3D('',#446,#356,#357);
#305=AXIS2_PLACEMENT_3D('',#448,#358,#359);
#306=AXIS2_PLACEMENT_3D('',#449,#360,#361);
#307=AXIS2_PLACEMENT_3D('',#450,#362,#363);
#308=AXIS2_PLACEMENT_3D('',#452,#364,#365);
#309=AXIS2_PLACEMENT_3D('',#453,#366,#367);
#310=AXIS2_PLACEMENT_3D('',#455,#368,#369);
#311=AXIS2_PLACEMENT_3D('',#456,#370,#371);
#312=AXIS2_PLACEMENT_3D('',#459,#372,#373);
#313=AXIS2_PLACEMENT_3D('',#461,#375,#376);
#314=AXIS2_PLACEMENT_3D('',#467,#377,#378);
#315=AXIS2_PLACEMENT_3D('',#471,#379,#380);
#316=AXIS2_PLACEMENT_3D('',#482,#384,#385);
#317=AXIS2_PLACEMENT_3D('',#493,#389,#390);
#318=AXIS2_PLACEMENT_3D('',#496,#391,#392);
#319=AXIS2_PLACEMENT_3D('',#498,#394,#395);
#320=AXIS2_PLACEMENT_3D('',#504,#396,#397);
#321=AXIS2_PLACEMENT_3D('',#508,#398,#399);
#322=AXIS2_PLACEMENT_3D('',#509,#400,#401);
#323=AXIS2_PLACEMENT_3D('',#510,#402,#403);
#324=AXIS2_PLACEMENT_3D('',#511,#404,#405);
#325=AXIS2_PLACEMENT_3D('',#512,#406,#407);
#326=AXIS2_PLACEMENT_3D('',#513,#408,#409);
#327=AXIS2_PLACEMENT_3D('',#514,#410,#411);
#328=AXIS2_PLACEMENT_3D('',#515,#412,#413);
#329=AXIS2_PLACEMENT_3D('',#516,#414,#415);
#330=AXIS2_PLACEMENT_3D('',#517,#416,#417);
#331=AXIS2_PLACEMENT_3D('',#518,#418,#419);
#332=AXIS2_PLACEMENT_3D('',#519,#420,#421);
#333=AXIS2_PLACEMENT_3D('',#521,#422,#423);
#334=AXIS2_PLACEMENT_3D('',#522,#424,#425);
#335=AXIS2_PLACEMENT_3D('',#523,#426,#427);
#336=AXIS2_PLACEMENT_3D('',#524,#428,#429);
#337=AXIS2_PLACEMENT_3D('',#525,#430,#431);
#338=DIRECTION('axis',(0.,0.,1.));
#339=DIRECTION('refdir',(1.,0.,0.));
#340=DIRECTION('center_axis',(0.,-2.92849059811407E-16,1.));
#341=DIRECTION('ref_axis',(-1.,0.,0.));
#342=DIRECTION('center_axis',(0.,2.92849059811407E-16,-1.));
#343=DIRECTION('ref_axis',(0.,1.,3.21507197360644E-16));
#344=DIRECTION('center_axis',(0.,2.96190268284937E-16,-1.));
#345=DIRECTION('ref_axis',(1.,0.,0.));
#346=DIRECTION('center_axis',(0.,2.92849059811407E-16,-1.));
#347=DIRECTION('ref_axis',(-1.,0.,0.));
#348=DIRECTION('center_axis',(0.,2.92849059811407E-16,-1.));
#349=DIRECTION('ref_axis',(0.,1.,3.21507197360644E-16));
#350=DIRECTION('center_axis',(0.,2.92849059811407E-16,-1.));
#351=DIRECTION('ref_axis',(0.,1.,3.21507197360644E-16));
#352=DIRECTION('center_axis',(0.,3.06213893705525E-16,-1.));
#353=DIRECTION('ref_axis',(0.,1.,2.77555756156289E-16));
#354=DIRECTION('center_axis',(0.,3.06213893705525E-16,-1.));
#355=DIRECTION('ref_axis',(-1.,0.,0.));
#356=DIRECTION('center_axis',(0.,3.06213893705525E-16,-1.));
#357=DIRECTION('ref_axis',(0.,1.,2.77555756156289E-16));
#358=DIRECTION('center_axis',(0.,-3.34120847352952E-18,1.));
#359=DIRECTION('ref_axis',(-1.,0.,0.));
#360=DIRECTION('center_axis',(0.,3.06213893705525E-16,-1.));
#361=DIRECTION('ref_axis',(-1.,0.,0.));
#362=DIRECTION('center_axis',(0.,-1.,0.));
#363=DIRECTION('ref_axis',(1.,0.,0.));
#364=DIRECTION('center_axis',(0.,-1.,0.));
#365=DIRECTION('ref_axis',(1.,0.,0.));
#366=DIRECTION('center_axis',(0.,-1.,0.));
#367=DIRECTION('ref_axis',(1.,0.,0.));
#368=DIRECTION('center_axis',(0.,1.,0.));
#369=DIRECTION('ref_axis',(1.,0.,0.));
#370=DIRECTION('center_axis',(0.,-0.538775219489691,-0.84244956102062));
#371=DIRECTION('ref_axis',(-1.,0.,0.));
#372=DIRECTION('center_axis',(0.,-0.538775219489691,-0.84244956102062));
#373=DIRECTION('ref_axis',(0.,-0.84244956102062,0.538775219489691));
#374=DIRECTION('',(1.,0.,0.));
#375=DIRECTION('center_axis',(0.,2.99531476758466E-16,-1.));
#376=DIRECTION('ref_axis',(-1.,0.,0.));
#377=DIRECTION('center_axis',(0.,2.99531476758466E-16,-1.));
#378=DIRECTION('ref_axis',(0.,-1.,-2.99531476758466E-16));
#379=DIRECTION('center_axis',(0.,1.69147502674819E-16,-1.));
#380=DIRECTION('ref_axis',(-1.,0.,0.));
#381=DIRECTION('',(0.,-1.,0.));
#382=DIRECTION('',(0.,1.,0.));
#383=DIRECTION('',(-1.,0.,0.));
#384=DIRECTION('center_axis',(0.,1.69147502674819E-16,1.));
#385=DIRECTION('ref_axis',(1.,0.,0.));
#386=DIRECTION('',(0.,-1.,0.));
#387=DIRECTION('',(0.,1.,0.));
#388=DIRECTION('',(1.,0.,0.));
#389=DIRECTION('center_axis',(0.,-0.538775219489691,0.84244956102062));
#390=DIRECTION('ref_axis',(1.,0.,0.));
#391=DIRECTION('center_axis',(0.,-0.538775219489691,0.84244956102062));
#392=DIRECTION('ref_axis',(0.,0.84244956102062,0.538775219489691));
#393=DIRECTION('',(1.,0.,0.));
#394=DIRECTION('center_axis',(0.,2.99531476758466E-16,1.));
#395=DIRECTION('ref_axis',(1.,0.,0.));
#396=DIRECTION('center_axis',(0.,2.99531476758466E-16,1.));
#397=DIRECTION('ref_axis',(0.,1.,-2.99531476758466E-16));
#398=DIRECTION('center_axis',(0.,-1.,0.));
#399=DIRECTION('ref_axis',(1.,0.,0.));
#400=DIRECTION('center_axis',(0.,-1.,0.));
#401=DIRECTION('ref_axis',(1.,0.,0.));
#402=DIRECTION('center_axis',(0.,-1.,0.));
#403=DIRECTION('ref_axis',(1.,0.,0.));
#404=DIRECTION('center_axis',(0.,-1.,0.));
#405=DIRECTION('ref_axis',(1.,0.,0.));
#406=DIRECTION('center_axis',(0.,-1.,0.));
#407=DIRECTION('ref_axis',(1.,0.,0.));
#408=DIRECTION('center_axis',(0.,-1.,0.));
#409=DIRECTION('ref_axis',(1.,0.,0.));
#410=DIRECTION('center_axis',(0.,-1.,0.));
#411=DIRECTION('ref_axis',(0.,0.,-1.));
#412=DIRECTION('center_axis',(0.,1.,0.));
#413=DIRECTION('ref_axis',(1.,0.,0.));
#414=DIRECTION('center_axis',(0.,-1.,0.));
#415=DIRECTION('ref_axis',(1.,0.,0.));
#416=DIRECTION('center_axis',(0.,-1.,0.));
#417=DIRECTION('ref_axis',(1.,0.,0.));
#418=DIRECTION('center_axis',(0.,-1.,0.));
#419=DIRECTION('ref_axis',(1.,0.,0.));
#420=DIRECTION('center_axis',(0.,-1.,0.));
#421=DIRECTION('ref_axis',(1.,0.,0.));
#422=DIRECTION('center_axis',(0.,-1.,0.));
#423=DIRECTION('ref_axis',(1.,0.,0.));
#424=DIRECTION('center_axis',(6.12323399573677E-17,0.,1.));
#425=DIRECTION('ref_axis',(1.,0.,0.));
#426=DIRECTION('center_axis',(0.,-1.,0.));
#427=DIRECTION('ref_axis',(1.,0.,0.));
#428=DIRECTION('center_axis',(0.,1.,0.));
#429=DIRECTION('ref_axis',(1.,0.,0.));
#430=DIRECTION('center_axis',(0.,-1.,0.));
#431=DIRECTION('ref_axis',(1.,0.,0.));
#432=CARTESIAN_POINT('',(0.,0.,0.));
#433=CARTESIAN_POINT('Origin',(0.,36.,3.06296276454306));
#434=CARTESIAN_POINT('',(0.,41.,6.00000000000002));
#435=CARTESIAN_POINT('Origin',(0.,36.,6.00000000000001));
#436=CARTESIAN_POINT('',(0.,43.,4.50000000000002));
#437=CARTESIAN_POINT('Origin',(0.,36.,4.50000000000001));
#438=CARTESIAN_POINT('Origin',(0.,40.5,6.00000000000002));
#439=CARTESIAN_POINT('',(0.,40.,6.00000000000002));
#440=CARTESIAN_POINT('Origin',(0.,36.,6.00000000000001));
#441=CARTESIAN_POINT('Origin',(0.,36.,5.25000000000001));
#442=CARTESIAN_POINT('',(0.,40.,-6.00000000000001));
#443=CARTESIAN_POINT('Origin',(0.,36.,-6.00000000000001));
#444=CARTESIAN_POINT('Origin',(0.,36.,-3.06296276454306));
#445=CARTESIAN_POINT('',(0.,41.,-6.00000000000001));
#446=CARTESIAN_POINT('Origin',(0.,36.,-6.00000000000001));
#447=CARTESIAN_POINT('',(0.,43.,-4.50000000000001));
#448=CARTESIAN_POINT('Origin',(0.,36.,-4.5));
#449=CARTESIAN_POINT('Origin',(0.,40.5,-6.00000000000001));
#450=CARTESIAN_POINT('Origin',(0.,17.9984801336691,0.));
#451=CARTESIAN_POINT('',(3.3235,17.,0.));
#452=CARTESIAN_POINT('Origin',(0.,17.,0.));
#453=CARTESIAN_POINT('Origin',(0.,8.5,0.));
#454=CARTESIAN_POINT('',(3.3235,1.22460635382238E-15,0.));
#455=CARTESIAN_POINT('Origin',(0.,1.11022302462516E-15,0.));
#456=CARTESIAN_POINT('Origin',(-17.5,23.5,4.5));
#457=CARTESIAN_POINT('',(4.33733789322437,23.5,4.5));
#458=CARTESIAN_POINT('',(-4.33733789322437,23.5,4.5));
#459=CARTESIAN_POINT('Origin',(0.,30.536372289326,0.));
#460=CARTESIAN_POINT('',(-17.5,23.5,4.5));
#461=CARTESIAN_POINT('Origin',(-17.5,49.218322901081,4.50000000000001));
#462=CARTESIAN_POINT('',(9.05261629874992,29.5346973661237,4.50000000000001));
#463=CARTESIAN_POINT('Ctrl Pts',(9.05261629874992,29.5346973661237,4.5));
#464=CARTESIAN_POINT('Ctrl Pts',(6.13877923728842,25.4547879839587,4.5));
#465=CARTESIAN_POINT('Ctrl Pts',(4.33733789322437,23.5,4.5));
#466=CARTESIAN_POINT('',(-9.05261629874992,29.5346973661237,4.50000000000001));
#467=CARTESIAN_POINT('Origin',(3.6576644490971E-15,36.,4.50000000000001));
#468=CARTESIAN_POINT('Ctrl Pts',(-4.33733789322437,23.5,4.5));
#469=CARTESIAN_POINT('Ctrl Pts',(-6.13877923728842,25.4547879839587,4.5));
#470=CARTESIAN_POINT('Ctrl Pts',(-9.05261629874992,29.5346973661237,4.5));
#471=CARTESIAN_POINT('Origin',(-17.5,6.56363828651689,7.));
#472=CARTESIAN_POINT('',(3.87298334620741,5.,7.));
#473=CARTESIAN_POINT('',(3.87298334620742,0.,7.));
#474=CARTESIAN_POINT('',(3.87298334620741,2.5,7.));
#475=CARTESIAN_POINT('',(-3.87298334620741,5.,7.));
#476=CARTESIAN_POINT('Ctrl Pts',(-3.87298334620742,5.,7.));
#477=CARTESIAN_POINT('Ctrl Pts',(0.,6.60714285714286,7.));
#478=CARTESIAN_POINT('Ctrl Pts',(3.87298334620742,5.,7.));
#479=CARTESIAN_POINT('',(-3.87298334620742,0.,7.));
#480=CARTESIAN_POINT('',(-3.87298334620741,2.5,7.));
#481=CARTESIAN_POINT('',(-6.75,1.11022302462516E-15,7.));
#482=CARTESIAN_POINT('Origin',(-17.5,0.,-7.));
#483=CARTESIAN_POINT('',(-3.87298334620741,5.,-7.));
#484=CARTESIAN_POINT('',(-3.87298334620742,0.,-7.));
#485=CARTESIAN_POINT('',(-3.87298334620741,2.5,-7.));
#486=CARTESIAN_POINT('',(3.87298334620741,5.,-7.));
#487=CARTESIAN_POINT('Ctrl Pts',(3.87298334620742,5.,-7.));
#488=CARTESIAN_POINT('Ctrl Pts',(0.,6.60714285714286,-7.));
#489=CARTESIAN_POINT('Ctrl Pts',(-3.87298334620742,5.,-7.));
#490=CARTESIAN_POINT('',(3.87298334620742,0.,-7.));
#491=CARTESIAN_POINT('',(3.87298334620741,2.5,-7.));
#492=CARTESIAN_POINT('',(-6.75,1.22460635382238E-15,-7.));
#493=CARTESIAN_POINT('Origin',(-17.5,20.7636329985955,-6.25));
#494=CARTESIAN_POINT('',(-4.33733789322437,23.5,-4.5));
#495=CARTESIAN_POINT('',(4.33733789322437,23.5,-4.5));
#496=CARTESIAN_POINT('Origin',(0.,30.536372289326,0.));
#497=CARTESIAN_POINT('',(-17.5,23.5,-4.5));
#498=CARTESIAN_POINT('Origin',(-17.5,23.5,-4.5));
#499=CARTESIAN_POINT('',(-9.05261629874992,29.5346973661237,-4.50000000000001));
#500=CARTESIAN_POINT('Ctrl Pts',(-9.05261629874992,29.5346973661237,-4.50000000000001));
#501=CARTESIAN_POINT('Ctrl Pts',(-6.13877923728842,25.4547879839587,-4.5));
#502=CARTESIAN_POINT('Ctrl Pts',(-4.33733789322437,23.5,-4.5));
#503=CARTESIAN_POINT('',(9.05261629874992,29.5346973661237,-4.50000000000001));
#504=CARTESIAN_POINT('Origin',(3.6576644490971E-15,36.,-4.50000000000001));
#505=CARTESIAN_POINT('Ctrl Pts',(4.33733789322437,23.5,-4.5));
#506=CARTESIAN_POINT('Ctrl Pts',(6.13877923728842,25.4547879839587,-4.5));
#507=CARTESIAN_POINT('Ctrl Pts',(9.05261629874992,29.5346973661237,-4.50000000000001));
#508=CARTESIAN_POINT('Origin',(0.,2.5,0.));
#509=CARTESIAN_POINT('Origin',(0.,0.,0.));
#510=CARTESIAN_POINT('Origin',(0.,5.,0.));
#511=CARTESIAN_POINT('Origin',(0.,2.5,0.));
#512=CARTESIAN_POINT('Origin',(0.,5.,0.));
#513=CARTESIAN_POINT('Origin',(0.,0.,0.));
#514=CARTESIAN_POINT('Origin',(4.,1.22460635382238E-15,0.));
#515=CARTESIAN_POINT('Origin',(0.,26.5173486830619,0.));
#516=CARTESIAN_POINT('Origin',(0.,29.5346973661237,0.));
#517=CARTESIAN_POINT('Origin',(0.,23.5,0.));
#518=CARTESIAN_POINT('Origin',(0.,15.,0.));
#519=CARTESIAN_POINT('Origin',(0.,23.5,0.));
#520=CARTESIAN_POINT('',(6.25,6.5,0.));
#521=CARTESIAN_POINT('Origin',(0.,6.5,0.));
#522=CARTESIAN_POINT('Origin',(3.6576644490971E-15,36.,0.));
#523=CARTESIAN_POINT('Origin',(0.,29.5346973661237,0.));
#524=CARTESIAN_POINT('Origin',(0.,26.5173486830619,0.));
#525=CARTESIAN_POINT('Origin',(0.,5.75,0.));
#526=UNCERTAINTY_MEASURE_WITH_UNIT(LENGTH_MEASURE(0.01),#530,
'DISTANCE_ACCURACY_VALUE',
'Maximum model space distance between geometric entities at asserted c
onnectivities');
#527=UNCERTAINTY_MEASURE_WITH_UNIT(LENGTH_MEASURE(1.E-6),#530,
'DISTANCE_ACCURACY_VALUE',
'Maximum model space distance between geometric entities at asserted c
onnectivities');
#528=(
GEOMETRIC_REPRESENTATION_CONTEXT(3)
GLOBAL_UNCERTAINTY_ASSIGNED_CONTEXT((#526))
GLOBAL_UNIT_ASSIGNED_CONTEXT((#530,#533,#531))
REPRESENTATION_CONTEXT('','3D')
);
#529=(
GEOMETRIC_REPRESENTATION_CONTEXT(3)
GLOBAL_UNCERTAINTY_ASSIGNED_CONTEXT((#527))
GLOBAL_UNIT_ASSIGNED_CONTEXT((#530,#533,#531))
REPRESENTATION_CONTEXT('','3D')
);
#530=(
LENGTH_UNIT()
NAMED_UNIT(*)
SI_UNIT(.MILLI.,.METRE.)
);
#531=(
NAMED_UNIT(*)
SI_UNIT($,.STERADIAN.)
SOLID_ANGLE_UNIT()
);
#532=DIMENSIONAL_EXPONENTS(0.,0.,0.,0.,0.,0.,0.);
#533=(
CONVERSION_BASED_UNIT('degree',#535)
NAMED_UNIT(#532)
PLANE_ANGLE_UNIT()
);
#534=(
NAMED_UNIT(*)
PLANE_ANGLE_UNIT()
SI_UNIT($,.RADIAN.)
);
#535=PLANE_ANGLE_MEASURE_WITH_UNIT(PLANE_ANGLE_MEASURE(0.01745329252),#534);
#536=SHAPE_DEFINITION_REPRESENTATION(#537,#538);
#537=PRODUCT_DEFINITION_SHAPE('',$,#540);
#538=SHAPE_REPRESENTATION('',(#295),#528);
#539=PRODUCT_DEFINITION_CONTEXT('part definition',#544,'design');
#540=PRODUCT_DEFINITION('CAD_9216','CAD_9216',#541,#539);
#541=PRODUCT_DEFINITION_FORMATION('',$,#546);
#542=PRODUCT_RELATED_PRODUCT_CATEGORY('CAD_9216','CAD_9216',(#546));
#543=APPLICATION_PROTOCOL_DEFINITION('international standard',
'automotive_design',2009,#544);
#544=APPLICATION_CONTEXT(
'Core Data for Automotive Mechanical Design Process');
#545=PRODUCT_CONTEXT('part definition',#544,'mechanical');
#546=PRODUCT('CAD_9216','CAD_9216',$,(#545));
#547=PRESENTATION_STYLE_ASSIGNMENT((#548));
#548=SURFACE_STYLE_USAGE(.BOTH.,#549);
#549=SURFACE_SIDE_STYLE('',(#550));
#550=SURFACE_STYLE_FILL_AREA(#551);
#551=FILL_AREA_STYLE('',(#552));
#552=FILL_AREA_STYLE_COLOUR('',#553);
#553=COLOUR_RGB('',0.752941176470588,0.752941176470588,0.752941176470588);
ENDSEC;
END-ISO-10303-21;
