ISO-10303-21;
HEADER;
/****************************************************************
 * Generated by software with PDElib inside                    *
 * PDElib Version v51a, created Wed 07/06/2011                  *
 * ITI Transcendata (http://www.transcendata.com/)              *
 ****************************************************************/
FILE_DESCRIPTION((''),'2;1');
FILE_NAME('U:\\Paletti Norm\\Paletti Artikel\\SZ\\SZ1310S_A.stp','2013-08-28T14:46:01',('janine behrens'),(''),'Autodesk Inventor 2012','Autodesk Inventor 2012','');
FILE_SCHEMA(('AUTOMOTIVE_DESIGN { 1 0 10303 214 1 1 1 1 }'));
ENDSEC;
DATA;
#5=APPLICATION_CONTEXT('automotive design');
#6=APPLICATION_PROTOCOL_DEFINITION('International Standard','automotive_design',2001,#5);
#7=PRODUCT_CONTEXT('',#5,'mechanical');
#8=PRODUCT('SZ1310S_A','SZ1310S_A',$,(#7));
#9=PRODUCT_RELATED_PRODUCT_CATEGORY('part',$,(#8));
#10=PRODUCT_DEFINITION_FORMATION('',$,#8);
#11=PRODUCT_DEFINITION_CONTEXT('part definition',#5,'design');
#12=PRODUCT_DEFINITION('',$,#10,#11);
#18=(NAMED_UNIT(*)PLANE_ANGLE_UNIT()SI_UNIT($,.RADIAN.));
#19=DIMENSIONAL_EXPONENTS(0.0,0.0,0.0,0.0,0.0,0.0,0.0);
#20=PLANE_ANGLE_MEASURE_WITH_UNIT(PLANE_ANGLE_MEASURE(0.0174532925),#18);
#24=(CONVERSION_BASED_UNIT('DEGREE',#20)NAMED_UNIT(#19)PLANE_ANGLE_UNIT());
#28=(NAMED_UNIT(*)SI_UNIT($,.STERADIAN.)SOLID_ANGLE_UNIT());
#32=(LENGTH_UNIT()NAMED_UNIT(*)SI_UNIT(.MILLI.,.METRE.));
#34=UNCERTAINTY_MEASURE_WITH_UNIT(LENGTH_MEASURE(0.01),#32,'DISTANCE_ACCURACY_VALUE','');
#36=(GEOMETRIC_REPRESENTATION_CONTEXT(3)GLOBAL_UNCERTAINTY_ASSIGNED_CONTEXT((#34))GLOBAL_UNIT_ASSIGNED_CONTEXT((#24,#28,#32))REPRESENTATION_CONTEXT('None','None'));
#37=AXIS2_PLACEMENT_3D('',#38,#39,#40);
#38=CARTESIAN_POINT('',(0.0,0.0,0.0));
#39=DIRECTION('',(0.0,0.0,1.0));
#40=DIRECTION('',(1.0,0.0,0.0));
#41=SHAPE_REPRESENTATION('',(#37),#36);
#42=PRODUCT_DEFINITION_SHAPE('','',#12);
#43=SHAPE_DEFINITION_REPRESENTATION(#42,#41);
#49=(NAMED_UNIT(*)PLANE_ANGLE_UNIT()SI_UNIT($,.RADIAN.));
#50=DIMENSIONAL_EXPONENTS(0.0,0.0,0.0,0.0,0.0,0.0,0.0);
#51=PLANE_ANGLE_MEASURE_WITH_UNIT(PLANE_ANGLE_MEASURE(0.0174532925),#49);
#55=(CONVERSION_BASED_UNIT('DEGREE',#51)NAMED_UNIT(#50)PLANE_ANGLE_UNIT());
#59=(NAMED_UNIT(*)SI_UNIT($,.STERADIAN.)SOLID_ANGLE_UNIT());
#63=(LENGTH_UNIT()NAMED_UNIT(*)SI_UNIT(.MILLI.,.METRE.));
#65=UNCERTAINTY_MEASURE_WITH_UNIT(LENGTH_MEASURE(0.000001),#63,'DISTANCE_ACCURACY_VALUE','');
#67=(GEOMETRIC_REPRESENTATION_CONTEXT(3)GLOBAL_UNCERTAINTY_ASSIGNED_CONTEXT((#65))GLOBAL_UNIT_ASSIGNED_CONTEXT((#55,#59,#63))REPRESENTATION_CONTEXT('','3D'));
#68=CARTESIAN_POINT('',(0.0,-5.467007E-017,-50.0));
#69=DIRECTION('',(0.0,0.0,1.0));
#70=DIRECTION('',(1.0,0.0,0.0));
#71=AXIS2_PLACEMENT_3D('',#68,#69,#70);
#72=PLANE('',#71);
#73=CARTESIAN_POINT('',(-4.0,5.0,-50.0));
#74=VERTEX_POINT('',#73);
#75=CARTESIAN_POINT('',(-4.0,-5.0,-50.0));
#76=VERTEX_POINT('',#75);
#77=CARTESIAN_POINT('',(-4.0,5.0,-50.0));
#78=DIRECTION('',(0.0,-1.0,0.0));
#79=VECTOR('',#78,10.0);
#80=LINE('',#77,#79);
#81=EDGE_CURVE('',#74,#76,#80,.T.);
#82=ORIENTED_EDGE('',*,*,#81,.F.);
#83=CARTESIAN_POINT('',(4.0,5.0,-50.0));
#84=VERTEX_POINT('',#83);
#85=CARTESIAN_POINT('',(4.0,5.0,-50.0));
#86=DIRECTION('',(-1.0,0.0,0.0));
#87=VECTOR('',#86,8.0);
#88=LINE('',#85,#87);
#89=EDGE_CURVE('',#84,#74,#88,.T.);
#90=ORIENTED_EDGE('',*,*,#89,.F.);
#91=CARTESIAN_POINT('',(4.0,-5.0,-50.0));
#92=VERTEX_POINT('',#91);
#93=CARTESIAN_POINT('',(4.0,-5.0,-50.0));
#94=DIRECTION('',(0.0,1.0,0.0));
#95=VECTOR('',#94,10.0);
#96=LINE('',#93,#95);
#97=EDGE_CURVE('',#92,#84,#96,.T.);
#98=ORIENTED_EDGE('',*,*,#97,.F.);
#99=CARTESIAN_POINT('',(-4.0,-5.0,-50.0));
#100=DIRECTION('',(1.0,0.0,0.0));
#101=VECTOR('',#100,8.0);
#102=LINE('',#99,#101);
#103=EDGE_CURVE('',#76,#92,#102,.T.);
#104=ORIENTED_EDGE('',*,*,#103,.F.);
#105=EDGE_LOOP('',(#82,#90,#98,#104));
#106=FACE_OUTER_BOUND('',#105,.T.);
#107=ADVANCED_FACE('',(#106),#72,.F.);
#108=CARTESIAN_POINT('',(4.0,5.0,0.0));
#109=DIRECTION('',(1.0,0.0,0.0));
#110=DIRECTION('',(0.0,0.0,-1.0));
#111=AXIS2_PLACEMENT_3D('',#108,#109,#110);
#112=PLANE('',#111);
#113=CARTESIAN_POINT('',(4.0,5.0,50.0));
#114=VERTEX_POINT('',#113);
#115=CARTESIAN_POINT('',(4.0,-5.0,50.0));
#116=VERTEX_POINT('',#115);
#117=CARTESIAN_POINT('',(4.0,5.0,50.0));
#118=DIRECTION('',(0.0,-1.0,0.0));
#119=VECTOR('',#118,10.0);
#120=LINE('',#117,#119);
#121=EDGE_CURVE('',#114,#116,#120,.T.);
#122=ORIENTED_EDGE('',*,*,#121,.T.);
#123=CARTESIAN_POINT('',(4.0,-5.0,50.0));
#124=DIRECTION('',(0.0,0.0,-1.0));
#125=VECTOR('',#124,100.0);
#126=LINE('',#123,#125);
#127=EDGE_CURVE('',#116,#92,#126,.T.);
#128=ORIENTED_EDGE('',*,*,#127,.T.);
#129=ORIENTED_EDGE('',*,*,#97,.T.);
#130=CARTESIAN_POINT('',(4.0,5.0,50.0));
#131=DIRECTION('',(0.0,0.0,-1.0));
#132=VECTOR('',#131,100.0);
#133=LINE('',#130,#132);
#134=EDGE_CURVE('',#114,#84,#133,.T.);
#135=ORIENTED_EDGE('',*,*,#134,.F.);
#136=EDGE_LOOP('',(#122,#128,#129,#135));
#137=FACE_OUTER_BOUND('',#136,.T.);
#138=ADVANCED_FACE('',(#137),#112,.T.);
#139=CARTESIAN_POINT('',(4.0,-5.0,0.0));
#140=DIRECTION('',(0.0,-1.0,0.0));
#141=DIRECTION('',(0.0,0.0,-1.0));
#142=AXIS2_PLACEMENT_3D('',#139,#140,#141);
#143=PLANE('',#142);
#144=CARTESIAN_POINT('',(-4.0,-5.0,50.0));
#145=VERTEX_POINT('',#144);
#146=CARTESIAN_POINT('',(4.0,-5.0,50.0));
#147=DIRECTION('',(-1.0,0.0,0.0));
#148=VECTOR('',#147,8.0);
#149=LINE('',#146,#148);
#150=EDGE_CURVE('',#116,#145,#149,.T.);
#151=ORIENTED_EDGE('',*,*,#150,.T.);
#152=CARTESIAN_POINT('',(-4.0,-5.0,50.0));
#153=DIRECTION('',(0.0,0.0,-1.0));
#154=VECTOR('',#153,100.0);
#155=LINE('',#152,#154);
#156=EDGE_CURVE('',#145,#76,#155,.T.);
#157=ORIENTED_EDGE('',*,*,#156,.T.);
#158=ORIENTED_EDGE('',*,*,#103,.T.);
#159=ORIENTED_EDGE('',*,*,#127,.F.);
#160=EDGE_LOOP('',(#151,#157,#158,#159));
#161=FACE_OUTER_BOUND('',#160,.T.);
#162=ADVANCED_FACE('',(#161),#143,.T.);
#163=CARTESIAN_POINT('',(-4.0,-5.0,0.0));
#164=DIRECTION('',(-1.0,0.0,0.0));
#165=DIRECTION('',(0.0,0.0,1.0));
#166=AXIS2_PLACEMENT_3D('',#163,#164,#165);
#167=PLANE('',#166);
#168=CARTESIAN_POINT('',(-4.0,5.0,50.0));
#169=VERTEX_POINT('',#168);
#170=CARTESIAN_POINT('',(-4.0,-5.0,50.0));
#171=DIRECTION('',(0.0,1.0,0.0));
#172=VECTOR('',#171,10.0);
#173=LINE('',#170,#172);
#174=EDGE_CURVE('',#145,#169,#173,.T.);
#175=ORIENTED_EDGE('',*,*,#174,.T.);
#176=CARTESIAN_POINT('',(-4.0,5.0,-50.0));
#177=DIRECTION('',(0.0,0.0,1.0));
#178=VECTOR('',#177,100.0);
#179=LINE('',#176,#178);
#180=EDGE_CURVE('',#74,#169,#179,.T.);
#181=ORIENTED_EDGE('',*,*,#180,.F.);
#182=ORIENTED_EDGE('',*,*,#81,.T.);
#183=ORIENTED_EDGE('',*,*,#156,.F.);
#184=EDGE_LOOP('',(#175,#181,#182,#183));
#185=FACE_OUTER_BOUND('',#184,.T.);
#186=ADVANCED_FACE('',(#185),#167,.T.);
#187=CARTESIAN_POINT('',(-4.0,5.0,0.0));
#188=DIRECTION('',(0.0,1.0,0.0));
#189=DIRECTION('',(0.0,0.0,1.0));
#190=AXIS2_PLACEMENT_3D('',#187,#188,#189);
#191=PLANE('',#190);
#192=CARTESIAN_POINT('',(-4.0,5.0,50.0));
#193=DIRECTION('',(1.0,0.0,0.0));
#194=VECTOR('',#193,8.0);
#195=LINE('',#192,#194);
#196=EDGE_CURVE('',#169,#114,#195,.T.);
#197=ORIENTED_EDGE('',*,*,#196,.T.);
#198=ORIENTED_EDGE('',*,*,#134,.T.);
#199=ORIENTED_EDGE('',*,*,#89,.T.);
#200=ORIENTED_EDGE('',*,*,#180,.T.);
#201=EDGE_LOOP('',(#197,#198,#199,#200));
#202=FACE_OUTER_BOUND('',#201,.T.);
#203=ADVANCED_FACE('',(#202),#191,.T.);
#204=CARTESIAN_POINT('',(0.0,5.467007E-017,50.0));
#205=DIRECTION('',(0.0,0.0,1.0));
#206=DIRECTION('',(1.0,0.0,0.0));
#207=AXIS2_PLACEMENT_3D('',#204,#205,#206);
#208=PLANE('',#207);
#209=ORIENTED_EDGE('',*,*,#121,.F.);
#210=ORIENTED_EDGE('',*,*,#196,.F.);
#211=ORIENTED_EDGE('',*,*,#174,.F.);
#212=ORIENTED_EDGE('',*,*,#150,.F.);
#213=EDGE_LOOP('',(#209,#210,#211,#212));
#214=FACE_OUTER_BOUND('',#213,.T.);
#215=ADVANCED_FACE('',(#214),#208,.T.);
#216=CLOSED_SHELL('',(#107,#138,#162,#186,#203,#215));
#217=MANIFOLD_SOLID_BREP('Volumenk\S\vrper1',#216);
#218=DRAUGHTING_PRE_DEFINED_COLOUR('black');
#219=FILL_AREA_STYLE_COLOUR('Schwarz',#218);
#220=FILL_AREA_STYLE('Schwarz',(#219));
#221=SURFACE_STYLE_FILL_AREA(#220);
#222=SURFACE_SIDE_STYLE('Schwarz',(#221));
#223=SURFACE_STYLE_USAGE(.BOTH.,#222);
#224=PRESENTATION_STYLE_ASSIGNMENT((#223));
#225=STYLED_ITEM('',(#224),#217);
#226=MECHANICAL_DESIGN_GEOMETRIC_PRESENTATION_REPRESENTATION('',(#225),#36);
#227=ADVANCED_BREP_SHAPE_REPRESENTATION('ABSR',(#217),#36);
#228=SHAPE_REPRESENTATION_RELATIONSHIP('SRR','None',#227,#41);
ENDSEC;
END-ISO-10303-21;
