ISO-10303-21;
HEADER;
/* Generated by software containing ST-Developer
 * from STEP Tools, Inc. (www.steptools.com) 
 */

FILE_DESCRIPTION(
/* description */ (''),
/* implementation_level */ '2;1');

FILE_NAME(
/* name */ 
'X:\\VIRI ZA WEB\\CAD DATOTEKE\\ELEKTRI\X2\010C\X0\NI CILINDRI PNCE\\D
ODATNA OPREMA ELEKTRI\X2\010C\X0\NI CILINDRI\\PRITRDILA\\KSZ\\izvoz\\C
AD_5229.stp',
/* time_stamp */ '2016-06-08T16:32:25+02:00',
/* author */ ('Hypex'),
/* organization */ ('Hypex'),
/* preprocessor_version */ 'ST-DEVELOPER v16.1',
/* originating_system */ 'Autodesk Inventor 2016',
/* authorisation */ '');

FILE_SCHEMA (('AUTOMOTIVE_DESIGN { 1 0 10303 214 3 1 1 }'));
ENDSEC;

DATA;
#10=MECHANICAL_DESIGN_GEOMETRIC_PRESENTATION_REPRESENTATION('',(#345,#344,
#346,#337,#336,#335,#338,#340,#341,#342,#343,#331,#347,#332,#339,#334,#333,
#330,#329,#328,#327,#326),#608);
#11=SHAPE_REPRESENTATION_RELATIONSHIP('SRR','None',#617,#12);
#12=ADVANCED_BREP_SHAPE_REPRESENTATION('',(#13),#607);
#13=MANIFOLD_SOLID_BREP('Solid1',#369);
#14=CONICAL_SURFACE('',#398,5.,44.9999999999999);
#15=CONICAL_SURFACE('',#402,4.3235,44.9999999999999);
#16=CYLINDRICAL_SURFACE('',#375,8.5);
#17=CYLINDRICAL_SURFACE('',#383,13.);
#18=CYLINDRICAL_SURFACE('',#400,4.3235);
#19=CYLINDRICAL_SURFACE('',#407,2.75);
#20=CYLINDRICAL_SURFACE('',#408,2.75);
#21=CYLINDRICAL_SURFACE('',#409,2.75);
#22=CYLINDRICAL_SURFACE('',#410,2.75);
#23=FACE_BOUND('',#66,.T.);
#24=FACE_BOUND('',#68,.T.);
#25=FACE_BOUND('',#71,.T.);
#26=FACE_BOUND('',#73,.T.);
#27=FACE_BOUND('',#75,.T.);
#28=FACE_BOUND('',#76,.T.);
#29=FACE_BOUND('',#77,.T.);
#30=FACE_BOUND('',#78,.T.);
#31=FACE_BOUND('',#79,.T.);
#32=FACE_BOUND('',#81,.T.);
#33=FACE_BOUND('',#82,.T.);
#34=FACE_BOUND('',#83,.T.);
#35=FACE_BOUND('',#84,.T.);
#36=FACE_BOUND('',#85,.T.);
#37=FACE_BOUND('',#90,.T.);
#38=FACE_BOUND('',#92,.T.);
#39=FACE_BOUND('',#94,.T.);
#40=FACE_BOUND('',#100,.T.);
#41=FACE_BOUND('',#102,.T.);
#42=FACE_BOUND('',#104,.T.);
#43=FACE_BOUND('',#106,.T.);
#44=FACE_OUTER_BOUND('',#65,.T.);
#45=FACE_OUTER_BOUND('',#67,.T.);
#46=FACE_OUTER_BOUND('',#69,.T.);
#47=FACE_OUTER_BOUND('',#70,.T.);
#48=FACE_OUTER_BOUND('',#72,.T.);
#49=FACE_OUTER_BOUND('',#74,.T.);
#50=FACE_OUTER_BOUND('',#80,.T.);
#51=FACE_OUTER_BOUND('',#86,.T.);
#52=FACE_OUTER_BOUND('',#87,.T.);
#53=FACE_OUTER_BOUND('',#88,.T.);
#54=FACE_OUTER_BOUND('',#89,.T.);
#55=FACE_OUTER_BOUND('',#91,.T.);
#56=FACE_OUTER_BOUND('',#93,.T.);
#57=FACE_OUTER_BOUND('',#95,.T.);
#58=FACE_OUTER_BOUND('',#96,.T.);
#59=FACE_OUTER_BOUND('',#97,.T.);
#60=FACE_OUTER_BOUND('',#98,.T.);
#61=FACE_OUTER_BOUND('',#99,.T.);
#62=FACE_OUTER_BOUND('',#101,.T.);
#63=FACE_OUTER_BOUND('',#103,.T.);
#64=FACE_OUTER_BOUND('',#105,.T.);
#65=EDGE_LOOP('',(#236,#237,#238,#239));
#66=EDGE_LOOP('',(#240));
#67=EDGE_LOOP('',(#241));
#68=EDGE_LOOP('',(#242,#243,#244,#245,#246,#247,#248,#249));
#69=EDGE_LOOP('',(#250,#251,#252,#253));
#70=EDGE_LOOP('',(#254));
#71=EDGE_LOOP('',(#255));
#72=EDGE_LOOP('',(#256));
#73=EDGE_LOOP('',(#257));
#74=EDGE_LOOP('',(#258,#259,#260,#261));
#75=EDGE_LOOP('',(#262));
#76=EDGE_LOOP('',(#263));
#77=EDGE_LOOP('',(#264));
#78=EDGE_LOOP('',(#265));
#79=EDGE_LOOP('',(#266));
#80=EDGE_LOOP('',(#267,#268,#269,#270));
#81=EDGE_LOOP('',(#271));
#82=EDGE_LOOP('',(#272));
#83=EDGE_LOOP('',(#273));
#84=EDGE_LOOP('',(#274));
#85=EDGE_LOOP('',(#275));
#86=EDGE_LOOP('',(#276,#277,#278,#279));
#87=EDGE_LOOP('',(#280,#281,#282,#283));
#88=EDGE_LOOP('',(#284,#285));
#89=EDGE_LOOP('',(#286));
#90=EDGE_LOOP('',(#287));
#91=EDGE_LOOP('',(#288));
#92=EDGE_LOOP('',(#289));
#93=EDGE_LOOP('',(#290));
#94=EDGE_LOOP('',(#291));
#95=EDGE_LOOP('',(#292,#293));
#96=EDGE_LOOP('',(#294,#295,#296,#297));
#97=EDGE_LOOP('',(#298,#299,#300,#301));
#98=EDGE_LOOP('',(#302,#303,#304,#305));
#99=EDGE_LOOP('',(#306));
#100=EDGE_LOOP('',(#307));
#101=EDGE_LOOP('',(#308));
#102=EDGE_LOOP('',(#309));
#103=EDGE_LOOP('',(#310));
#104=EDGE_LOOP('',(#311));
#105=EDGE_LOOP('',(#312));
#106=EDGE_LOOP('',(#313));
#107=CIRCLE('',#372,8.5);
#108=CIRCLE('',#373,8.5);
#109=CIRCLE('',#374,5.05);
#110=CIRCLE('',#376,8.5);
#111=CIRCLE('',#377,8.5);
#112=CIRCLE('',#378,8.5);
#113=CIRCLE('',#381,13.);
#114=CIRCLE('',#382,4.95);
#115=CIRCLE('',#384,13.);
#116=CIRCLE('',#386,2.75);
#117=CIRCLE('',#387,2.75);
#118=CIRCLE('',#388,2.75);
#119=CIRCLE('',#389,2.75);
#120=CIRCLE('',#391,2.75);
#121=CIRCLE('',#392,2.75);
#122=CIRCLE('',#393,2.75);
#123=CIRCLE('',#394,2.75);
#124=CIRCLE('',#399,4.3235);
#125=CIRCLE('',#401,4.3235);
#126=LINE('',#517,#146);
#127=LINE('',#521,#147);
#128=LINE('',#529,#148);
#129=LINE('',#532,#149);
#130=LINE('',#534,#150);
#131=LINE('',#537,#151);
#132=LINE('',#539,#152);
#133=LINE('',#551,#153);
#134=LINE('',#553,#154);
#135=LINE('',#555,#155);
#136=LINE('',#556,#156);
#137=LINE('',#568,#157);
#138=LINE('',#570,#158);
#139=LINE('',#572,#159);
#140=LINE('',#573,#160);
#141=LINE('',#583,#161);
#142=LINE('',#584,#162);
#143=LINE('',#586,#163);
#144=LINE('',#597,#164);
#145=LINE('',#599,#165);
#146=VECTOR('',#415,8.);
#147=VECTOR('',#418,8.);
#148=VECTOR('',#427,8.05);
#149=VECTOR('',#430,8.05);
#150=VECTOR('',#431,8.05);
#151=VECTOR('',#434,8.05);
#152=VECTOR('',#437,8.);
#153=VECTOR('',#450,35.);
#154=VECTOR('',#451,40.);
#155=VECTOR('',#452,35.);
#156=VECTOR('',#453,40.);
#157=VECTOR('',#464,35.);
#158=VECTOR('',#465,40.);
#159=VECTOR('',#466,35.);
#160=VECTOR('',#467,40.);
#161=VECTOR('',#478,10.);
#162=VECTOR('',#479,10.);
#163=VECTOR('',#482,8.);
#164=VECTOR('',#499,10.);
#165=VECTOR('',#502,10.);
#166=VERTEX_POINT('',#515);
#167=VERTEX_POINT('',#516);
#168=VERTEX_POINT('',#518);
#169=VERTEX_POINT('',#520);
#170=VERTEX_POINT('',#523);
#171=VERTEX_POINT('',#526);
#172=VERTEX_POINT('',#528);
#173=VERTEX_POINT('',#530);
#174=VERTEX_POINT('',#533);
#175=VERTEX_POINT('',#535);
#176=VERTEX_POINT('',#541);
#177=VERTEX_POINT('',#543);
#178=VERTEX_POINT('',#546);
#179=VERTEX_POINT('',#549);
#180=VERTEX_POINT('',#550);
#181=VERTEX_POINT('',#552);
#182=VERTEX_POINT('',#554);
#183=VERTEX_POINT('',#557);
#184=VERTEX_POINT('',#559);
#185=VERTEX_POINT('',#561);
#186=VERTEX_POINT('',#563);
#187=VERTEX_POINT('',#566);
#188=VERTEX_POINT('',#567);
#189=VERTEX_POINT('',#569);
#190=VERTEX_POINT('',#571);
#191=VERTEX_POINT('',#574);
#192=VERTEX_POINT('',#576);
#193=VERTEX_POINT('',#578);
#194=VERTEX_POINT('',#580);
#195=VERTEX_POINT('',#589);
#196=VERTEX_POINT('',#592);
#197=EDGE_CURVE('',#166,#167,#126,.T.);
#198=EDGE_CURVE('',#168,#166,#107,.T.);
#199=EDGE_CURVE('',#169,#168,#127,.T.);
#200=EDGE_CURVE('',#167,#169,#108,.T.);
#201=EDGE_CURVE('',#170,#170,#109,.T.);
#202=EDGE_CURVE('',#171,#171,#110,.F.);
#203=EDGE_CURVE('',#172,#166,#128,.F.);
#204=EDGE_CURVE('',#173,#172,#111,.T.);
#205=EDGE_CURVE('',#167,#173,#129,.T.);
#206=EDGE_CURVE('',#169,#174,#130,.T.);
#207=EDGE_CURVE('',#175,#174,#112,.T.);
#208=EDGE_CURVE('',#168,#175,#131,.T.);
#209=EDGE_CURVE('',#172,#173,#132,.T.);
#210=EDGE_CURVE('',#176,#176,#113,.T.);
#211=EDGE_CURVE('',#177,#177,#114,.T.);
#212=EDGE_CURVE('',#178,#178,#115,.F.);
#213=EDGE_CURVE('',#179,#180,#133,.T.);
#214=EDGE_CURVE('',#181,#179,#134,.T.);
#215=EDGE_CURVE('',#182,#181,#135,.T.);
#216=EDGE_CURVE('',#180,#182,#136,.T.);
#217=EDGE_CURVE('',#183,#183,#116,.T.);
#218=EDGE_CURVE('',#184,#184,#117,.T.);
#219=EDGE_CURVE('',#185,#185,#118,.T.);
#220=EDGE_CURVE('',#186,#186,#119,.T.);
#221=EDGE_CURVE('',#187,#188,#137,.T.);
#222=EDGE_CURVE('',#188,#189,#138,.T.);
#223=EDGE_CURVE('',#189,#190,#139,.T.);
#224=EDGE_CURVE('',#190,#187,#140,.T.);
#225=EDGE_CURVE('',#191,#191,#120,.T.);
#226=EDGE_CURVE('',#192,#192,#121,.T.);
#227=EDGE_CURVE('',#193,#193,#122,.T.);
#228=EDGE_CURVE('',#194,#194,#123,.T.);
#229=EDGE_CURVE('',#187,#179,#141,.T.);
#230=EDGE_CURVE('',#190,#181,#142,.T.);
#231=EDGE_CURVE('',#174,#175,#143,.T.);
#232=EDGE_CURVE('',#195,#195,#124,.T.);
#233=EDGE_CURVE('',#196,#196,#125,.T.);
#234=EDGE_CURVE('',#188,#180,#144,.T.);
#235=EDGE_CURVE('',#189,#182,#145,.T.);
#236=ORIENTED_EDGE('',*,*,#197,.F.);
#237=ORIENTED_EDGE('',*,*,#198,.F.);
#238=ORIENTED_EDGE('',*,*,#199,.F.);
#239=ORIENTED_EDGE('',*,*,#200,.F.);
#240=ORIENTED_EDGE('',*,*,#201,.F.);
#241=ORIENTED_EDGE('',*,*,#202,.F.);
#242=ORIENTED_EDGE('',*,*,#198,.T.);
#243=ORIENTED_EDGE('',*,*,#203,.F.);
#244=ORIENTED_EDGE('',*,*,#204,.F.);
#245=ORIENTED_EDGE('',*,*,#205,.F.);
#246=ORIENTED_EDGE('',*,*,#200,.T.);
#247=ORIENTED_EDGE('',*,*,#206,.T.);
#248=ORIENTED_EDGE('',*,*,#207,.F.);
#249=ORIENTED_EDGE('',*,*,#208,.F.);
#250=ORIENTED_EDGE('',*,*,#197,.T.);
#251=ORIENTED_EDGE('',*,*,#205,.T.);
#252=ORIENTED_EDGE('',*,*,#209,.F.);
#253=ORIENTED_EDGE('',*,*,#203,.T.);
#254=ORIENTED_EDGE('',*,*,#210,.F.);
#255=ORIENTED_EDGE('',*,*,#211,.F.);
#256=ORIENTED_EDGE('',*,*,#210,.T.);
#257=ORIENTED_EDGE('',*,*,#212,.T.);
#258=ORIENTED_EDGE('',*,*,#213,.F.);
#259=ORIENTED_EDGE('',*,*,#214,.F.);
#260=ORIENTED_EDGE('',*,*,#215,.F.);
#261=ORIENTED_EDGE('',*,*,#216,.F.);
#262=ORIENTED_EDGE('',*,*,#212,.F.);
#263=ORIENTED_EDGE('',*,*,#217,.T.);
#264=ORIENTED_EDGE('',*,*,#218,.T.);
#265=ORIENTED_EDGE('',*,*,#219,.T.);
#266=ORIENTED_EDGE('',*,*,#220,.T.);
#267=ORIENTED_EDGE('',*,*,#221,.T.);
#268=ORIENTED_EDGE('',*,*,#222,.T.);
#269=ORIENTED_EDGE('',*,*,#223,.T.);
#270=ORIENTED_EDGE('',*,*,#224,.T.);
#271=ORIENTED_EDGE('',*,*,#202,.T.);
#272=ORIENTED_EDGE('',*,*,#225,.F.);
#273=ORIENTED_EDGE('',*,*,#226,.F.);
#274=ORIENTED_EDGE('',*,*,#227,.F.);
#275=ORIENTED_EDGE('',*,*,#228,.F.);
#276=ORIENTED_EDGE('',*,*,#214,.T.);
#277=ORIENTED_EDGE('',*,*,#229,.F.);
#278=ORIENTED_EDGE('',*,*,#224,.F.);
#279=ORIENTED_EDGE('',*,*,#230,.T.);
#280=ORIENTED_EDGE('',*,*,#199,.T.);
#281=ORIENTED_EDGE('',*,*,#208,.T.);
#282=ORIENTED_EDGE('',*,*,#231,.F.);
#283=ORIENTED_EDGE('',*,*,#206,.F.);
#284=ORIENTED_EDGE('',*,*,#207,.T.);
#285=ORIENTED_EDGE('',*,*,#231,.T.);
#286=ORIENTED_EDGE('',*,*,#201,.T.);
#287=ORIENTED_EDGE('',*,*,#232,.T.);
#288=ORIENTED_EDGE('',*,*,#233,.T.);
#289=ORIENTED_EDGE('',*,*,#232,.F.);
#290=ORIENTED_EDGE('',*,*,#211,.T.);
#291=ORIENTED_EDGE('',*,*,#233,.F.);
#292=ORIENTED_EDGE('',*,*,#204,.T.);
#293=ORIENTED_EDGE('',*,*,#209,.T.);
#294=ORIENTED_EDGE('',*,*,#213,.T.);
#295=ORIENTED_EDGE('',*,*,#234,.F.);
#296=ORIENTED_EDGE('',*,*,#221,.F.);
#297=ORIENTED_EDGE('',*,*,#229,.T.);
#298=ORIENTED_EDGE('',*,*,#216,.T.);
#299=ORIENTED_EDGE('',*,*,#235,.F.);
#300=ORIENTED_EDGE('',*,*,#222,.F.);
#301=ORIENTED_EDGE('',*,*,#234,.T.);
#302=ORIENTED_EDGE('',*,*,#215,.T.);
#303=ORIENTED_EDGE('',*,*,#230,.F.);
#304=ORIENTED_EDGE('',*,*,#223,.F.);
#305=ORIENTED_EDGE('',*,*,#235,.T.);
#306=ORIENTED_EDGE('',*,*,#228,.T.);
#307=ORIENTED_EDGE('',*,*,#220,.F.);
#308=ORIENTED_EDGE('',*,*,#227,.T.);
#309=ORIENTED_EDGE('',*,*,#219,.F.);
#310=ORIENTED_EDGE('',*,*,#226,.T.);
#311=ORIENTED_EDGE('',*,*,#218,.F.);
#312=ORIENTED_EDGE('',*,*,#225,.T.);
#313=ORIENTED_EDGE('',*,*,#217,.F.);
#314=PLANE('',#371);
#315=PLANE('',#379);
#316=PLANE('',#380);
#317=PLANE('',#385);
#318=PLANE('',#390);
#319=PLANE('',#395);
#320=PLANE('',#396);
#321=PLANE('',#397);
#322=PLANE('',#403);
#323=PLANE('',#404);
#324=PLANE('',#405);
#325=PLANE('',#406);
#326=STYLED_ITEM('',(#626),#348);
#327=STYLED_ITEM('',(#626),#349);
#328=STYLED_ITEM('',(#626),#350);
#329=STYLED_ITEM('',(#626),#351);
#330=STYLED_ITEM('',(#626),#352);
#331=STYLED_ITEM('',(#626),#353);
#332=STYLED_ITEM('',(#626),#354);
#333=STYLED_ITEM('',(#626),#355);
#334=STYLED_ITEM('',(#626),#356);
#335=STYLED_ITEM('',(#626),#357);
#336=STYLED_ITEM('',(#626),#358);
#337=STYLED_ITEM('',(#626),#359);
#338=STYLED_ITEM('',(#626),#360);
#339=STYLED_ITEM('',(#626),#361);
#340=STYLED_ITEM('',(#626),#362);
#341=STYLED_ITEM('',(#626),#363);
#342=STYLED_ITEM('',(#626),#364);
#343=STYLED_ITEM('',(#626),#365);
#344=STYLED_ITEM('',(#626),#366);
#345=STYLED_ITEM('',(#626),#367);
#346=STYLED_ITEM('',(#626),#368);
#347=STYLED_ITEM('',(#626),#13);
#348=ADVANCED_FACE('',(#44,#23),#314,.T.);
#349=ADVANCED_FACE('',(#45,#24),#16,.T.);
#350=ADVANCED_FACE('',(#46),#315,.T.);
#351=ADVANCED_FACE('',(#47,#25),#316,.F.);
#352=ADVANCED_FACE('',(#48,#26),#17,.T.);
#353=ADVANCED_FACE('',(#49,#27,#28,#29,#30,#31),#317,.F.);
#354=ADVANCED_FACE('',(#50,#32,#33,#34,#35,#36),#318,.T.);
#355=ADVANCED_FACE('',(#51),#319,.F.);
#356=ADVANCED_FACE('',(#52),#320,.T.);
#357=ADVANCED_FACE('',(#53),#321,.T.);
#358=ADVANCED_FACE('',(#54,#37),#14,.F.);
#359=ADVANCED_FACE('',(#55,#38),#18,.F.);
#360=ADVANCED_FACE('',(#56,#39),#15,.F.);
#361=ADVANCED_FACE('',(#57),#322,.T.);
#362=ADVANCED_FACE('',(#58),#323,.F.);
#363=ADVANCED_FACE('',(#59),#324,.F.);
#364=ADVANCED_FACE('',(#60),#325,.F.);
#365=ADVANCED_FACE('',(#61,#40),#19,.F.);
#366=ADVANCED_FACE('',(#62,#41),#20,.F.);
#367=ADVANCED_FACE('',(#63,#42),#21,.F.);
#368=ADVANCED_FACE('',(#64,#43),#22,.F.);
#369=CLOSED_SHELL('',(#348,#349,#350,#351,#352,#353,#354,#355,#356,#357,
#358,#359,#360,#361,#362,#363,#364,#365,#366,#367,#368));
#370=AXIS2_PLACEMENT_3D('placement',#513,#411,#412);
#371=AXIS2_PLACEMENT_3D('',#514,#413,#414);
#372=AXIS2_PLACEMENT_3D('',#519,#416,#417);
#373=AXIS2_PLACEMENT_3D('',#522,#419,#420);
#374=AXIS2_PLACEMENT_3D('',#524,#421,#422);
#375=AXIS2_PLACEMENT_3D('',#525,#423,#424);
#376=AXIS2_PLACEMENT_3D('',#527,#425,#426);
#377=AXIS2_PLACEMENT_3D('',#531,#428,#429);
#378=AXIS2_PLACEMENT_3D('',#536,#432,#433);
#379=AXIS2_PLACEMENT_3D('',#538,#435,#436);
#380=AXIS2_PLACEMENT_3D('',#540,#438,#439);
#381=AXIS2_PLACEMENT_3D('',#542,#440,#441);
#382=AXIS2_PLACEMENT_3D('',#544,#442,#443);
#383=AXIS2_PLACEMENT_3D('',#545,#444,#445);
#384=AXIS2_PLACEMENT_3D('',#547,#446,#447);
#385=AXIS2_PLACEMENT_3D('',#548,#448,#449);
#386=AXIS2_PLACEMENT_3D('',#558,#454,#455);
#387=AXIS2_PLACEMENT_3D('',#560,#456,#457);
#388=AXIS2_PLACEMENT_3D('',#562,#458,#459);
#389=AXIS2_PLACEMENT_3D('',#564,#460,#461);
#390=AXIS2_PLACEMENT_3D('',#565,#462,#463);
#391=AXIS2_PLACEMENT_3D('',#575,#468,#469);
#392=AXIS2_PLACEMENT_3D('',#577,#470,#471);
#393=AXIS2_PLACEMENT_3D('',#579,#472,#473);
#394=AXIS2_PLACEMENT_3D('',#581,#474,#475);
#395=AXIS2_PLACEMENT_3D('',#582,#476,#477);
#396=AXIS2_PLACEMENT_3D('',#585,#480,#481);
#397=AXIS2_PLACEMENT_3D('',#587,#483,#484);
#398=AXIS2_PLACEMENT_3D('',#588,#485,#486);
#399=AXIS2_PLACEMENT_3D('',#590,#487,#488);
#400=AXIS2_PLACEMENT_3D('',#591,#489,#490);
#401=AXIS2_PLACEMENT_3D('',#593,#491,#492);
#402=AXIS2_PLACEMENT_3D('',#594,#493,#494);
#403=AXIS2_PLACEMENT_3D('',#595,#495,#496);
#404=AXIS2_PLACEMENT_3D('',#596,#497,#498);
#405=AXIS2_PLACEMENT_3D('',#598,#500,#501);
#406=AXIS2_PLACEMENT_3D('',#600,#503,#504);
#407=AXIS2_PLACEMENT_3D('',#601,#505,#506);
#408=AXIS2_PLACEMENT_3D('',#602,#507,#508);
#409=AXIS2_PLACEMENT_3D('',#603,#509,#510);
#410=AXIS2_PLACEMENT_3D('',#604,#511,#512);
#411=DIRECTION('axis',(0.,0.,1.));
#412=DIRECTION('refdir',(1.,0.,0.));
#413=DIRECTION('center_axis',(-2.61865295472298E-16,1.,0.));
#414=DIRECTION('ref_axis',(0.,0.,1.));
#415=DIRECTION('',(-1.,-2.61865295472298E-16,0.));
#416=DIRECTION('center_axis',(2.61865295472298E-16,-1.,0.));
#417=DIRECTION('ref_axis',(0.,0.,-1.));
#418=DIRECTION('',(1.,2.61865295472298E-16,0.));
#419=DIRECTION('center_axis',(2.61865295472298E-16,-1.,0.));
#420=DIRECTION('ref_axis',(0.,0.,-1.));
#421=DIRECTION('center_axis',(-2.61865295472298E-16,1.,0.));
#422=DIRECTION('ref_axis',(0.,0.,1.));
#423=DIRECTION('center_axis',(0.,1.,0.));
#424=DIRECTION('ref_axis',(0.,0.,-1.));
#425=DIRECTION('center_axis',(0.,1.,0.));
#426=DIRECTION('ref_axis',(0.,0.,1.));
#427=DIRECTION('',(0.,-1.,0.));
#428=DIRECTION('center_axis',(0.,1.,0.));
#429=DIRECTION('ref_axis',(0.,0.,1.));
#430=DIRECTION('',(0.,-1.,0.));
#431=DIRECTION('',(0.,-1.,0.));
#432=DIRECTION('center_axis',(0.,1.,0.));
#433=DIRECTION('ref_axis',(0.,0.,1.));
#434=DIRECTION('',(0.,-1.,0.));
#435=DIRECTION('center_axis',(0.,0.,1.));
#436=DIRECTION('ref_axis',(1.,0.,0.));
#437=DIRECTION('',(-1.,0.,0.));
#438=DIRECTION('center_axis',(0.,1.,0.));
#439=DIRECTION('ref_axis',(0.,0.,1.));
#440=DIRECTION('center_axis',(0.,1.,0.));
#441=DIRECTION('ref_axis',(0.,0.,-1.));
#442=DIRECTION('center_axis',(0.,-1.,0.));
#443=DIRECTION('ref_axis',(0.,0.,-1.));
#444=DIRECTION('center_axis',(0.,1.,0.));
#445=DIRECTION('ref_axis',(0.,0.,-1.));
#446=DIRECTION('center_axis',(0.,1.,0.));
#447=DIRECTION('ref_axis',(0.,0.,1.));
#448=DIRECTION('center_axis',(0.,1.,0.));
#449=DIRECTION('ref_axis',(0.,0.,1.));
#450=DIRECTION('',(0.,0.,1.));
#451=DIRECTION('',(-1.,0.,0.));
#452=DIRECTION('',(0.,0.,-1.));
#453=DIRECTION('',(1.,0.,0.));
#454=DIRECTION('center_axis',(0.,1.,0.));
#455=DIRECTION('ref_axis',(1.,0.,0.));
#456=DIRECTION('center_axis',(0.,1.,0.));
#457=DIRECTION('ref_axis',(1.,0.,0.));
#458=DIRECTION('center_axis',(0.,1.,0.));
#459=DIRECTION('ref_axis',(1.,0.,0.));
#460=DIRECTION('center_axis',(0.,1.,0.));
#461=DIRECTION('ref_axis',(1.,0.,0.));
#462=DIRECTION('center_axis',(0.,1.,0.));
#463=DIRECTION('ref_axis',(0.,0.,1.));
#464=DIRECTION('',(0.,0.,1.));
#465=DIRECTION('',(1.,0.,0.));
#466=DIRECTION('',(0.,0.,-1.));
#467=DIRECTION('',(-1.,0.,0.));
#468=DIRECTION('center_axis',(0.,1.,0.));
#469=DIRECTION('ref_axis',(1.,0.,0.));
#470=DIRECTION('center_axis',(0.,1.,0.));
#471=DIRECTION('ref_axis',(1.,0.,0.));
#472=DIRECTION('center_axis',(0.,1.,0.));
#473=DIRECTION('ref_axis',(1.,0.,0.));
#474=DIRECTION('center_axis',(0.,1.,0.));
#475=DIRECTION('ref_axis',(1.,0.,0.));
#476=DIRECTION('center_axis',(0.,0.,1.));
#477=DIRECTION('ref_axis',(1.,0.,0.));
#478=DIRECTION('',(0.,-1.,0.));
#479=DIRECTION('',(0.,-1.,0.));
#480=DIRECTION('center_axis',(0.,0.,-1.));
#481=DIRECTION('ref_axis',(-1.,0.,0.));
#482=DIRECTION('',(1.,0.,0.));
#483=DIRECTION('center_axis',(0.,1.,0.));
#484=DIRECTION('ref_axis',(0.,0.,1.));
#485=DIRECTION('center_axis',(0.,1.,0.));
#486=DIRECTION('ref_axis',(0.,0.,1.));
#487=DIRECTION('center_axis',(0.,-1.,0.));
#488=DIRECTION('ref_axis',(0.,0.,-1.));
#489=DIRECTION('center_axis',(0.,1.,0.));
#490=DIRECTION('ref_axis',(0.,0.,-1.));
#491=DIRECTION('center_axis',(0.,-1.,0.));
#492=DIRECTION('ref_axis',(0.,0.,-1.));
#493=DIRECTION('center_axis',(0.,-1.,0.));
#494=DIRECTION('ref_axis',(0.,0.,-1.));
#495=DIRECTION('center_axis',(0.,1.,0.));
#496=DIRECTION('ref_axis',(0.,0.,1.));
#497=DIRECTION('center_axis',(1.,0.,0.));
#498=DIRECTION('ref_axis',(0.,0.,-1.));
#499=DIRECTION('',(0.,-1.,0.));
#500=DIRECTION('center_axis',(0.,0.,-1.));
#501=DIRECTION('ref_axis',(-1.,0.,0.));
#502=DIRECTION('',(0.,-1.,0.));
#503=DIRECTION('center_axis',(-1.,0.,0.));
#504=DIRECTION('ref_axis',(0.,0.,1.));
#505=DIRECTION('center_axis',(0.,1.,0.));
#506=DIRECTION('ref_axis',(0.,0.,-1.));
#507=DIRECTION('center_axis',(0.,1.,0.));
#508=DIRECTION('ref_axis',(0.,0.,-1.));
#509=DIRECTION('center_axis',(0.,1.,0.));
#510=DIRECTION('ref_axis',(0.,0.,-1.));
#511=DIRECTION('center_axis',(0.,1.,0.));
#512=DIRECTION('ref_axis',(0.,0.,-1.));
#513=CARTESIAN_POINT('',(0.,0.,0.));
#514=CARTESIAN_POINT('Origin',(-1.14688789616928E-15,19.9,1.21648705368811E-15));
#515=CARTESIAN_POINT('',(4.,19.9,7.5));
#516=CARTESIAN_POINT('',(-4.,19.9,7.5));
#517=CARTESIAN_POINT('',(7.5,19.9,7.5));
#518=CARTESIAN_POINT('',(4.,19.9,-7.5));
#519=CARTESIAN_POINT('Origin',(0.,19.9,0.));
#520=CARTESIAN_POINT('',(-4.,19.9,-7.5));
#521=CARTESIAN_POINT('',(-6.75,19.9,-7.5));
#522=CARTESIAN_POINT('Origin',(0.,19.9,0.));
#523=CARTESIAN_POINT('',(-6.18446633569414E-16,19.9,-5.05));
#524=CARTESIAN_POINT('Origin',(0.,19.9,0.));
#525=CARTESIAN_POINT('Origin',(0.,-0.15,0.));
#526=CARTESIAN_POINT('',(0.,10.,8.5));
#527=CARTESIAN_POINT('Origin',(0.,10.,0.));
#528=CARTESIAN_POINT('',(4.,11.85,7.5));
#529=CARTESIAN_POINT('',(4.,-0.15,7.5));
#530=CARTESIAN_POINT('',(-4.,11.85,7.5));
#531=CARTESIAN_POINT('Origin',(0.,11.85,0.));
#532=CARTESIAN_POINT('',(-4.,-0.15,7.5));
#533=CARTESIAN_POINT('',(-4.,11.85,-7.5));
#534=CARTESIAN_POINT('',(-4.,-0.15,-7.5));
#535=CARTESIAN_POINT('',(4.,11.85,-7.5));
#536=CARTESIAN_POINT('Origin',(0.,11.85,0.));
#537=CARTESIAN_POINT('',(4.,-0.15,-7.5));
#538=CARTESIAN_POINT('Origin',(15.,27.85,7.5));
#539=CARTESIAN_POINT('',(15.,11.85,7.5));
#540=CARTESIAN_POINT('Origin',(-1.3267006990763E-16,-0.1,0.));
#541=CARTESIAN_POINT('',(13.,-0.1,1.59204083889156E-15));
#542=CARTESIAN_POINT('Origin',(0.,-0.1,0.));
#543=CARTESIAN_POINT('',(-6.0620016557794E-16,-0.1,4.95));
#544=CARTESIAN_POINT('Origin',(0.,-0.1,0.));
#545=CARTESIAN_POINT('Origin',(0.,-0.15,0.));
#546=CARTESIAN_POINT('',(0.,0.,13.));
#547=CARTESIAN_POINT('Origin',(0.,0.,0.));
#548=CARTESIAN_POINT('Origin',(0.,0.,0.));
#549=CARTESIAN_POINT('',(-20.,0.,-17.5));
#550=CARTESIAN_POINT('',(-20.,0.,17.5));
#551=CARTESIAN_POINT('',(-20.,0.,-17.5));
#552=CARTESIAN_POINT('',(20.,0.,-17.5));
#553=CARTESIAN_POINT('',(20.,0.,-17.5));
#554=CARTESIAN_POINT('',(20.,0.,17.5));
#555=CARTESIAN_POINT('',(20.,0.,17.5));
#556=CARTESIAN_POINT('',(-20.,0.,17.5));
#557=CARTESIAN_POINT('',(-12.25,0.,12.5));
#558=CARTESIAN_POINT('Origin',(-15.,0.,12.5));
#559=CARTESIAN_POINT('',(-12.25,0.,-12.5));
#560=CARTESIAN_POINT('Origin',(-15.,0.,-12.5));
#561=CARTESIAN_POINT('',(17.75,0.,12.5));
#562=CARTESIAN_POINT('Origin',(15.,0.,12.5));
#563=CARTESIAN_POINT('',(17.75,0.,-12.5));
#564=CARTESIAN_POINT('Origin',(15.,0.,-12.5));
#565=CARTESIAN_POINT('Origin',(0.,10.,0.));
#566=CARTESIAN_POINT('',(-20.,10.,-17.5));
#567=CARTESIAN_POINT('',(-20.,10.,17.5));
#568=CARTESIAN_POINT('',(-20.,10.,-17.5));
#569=CARTESIAN_POINT('',(20.,10.,17.5));
#570=CARTESIAN_POINT('',(-20.,10.,17.5));
#571=CARTESIAN_POINT('',(20.,10.,-17.5));
#572=CARTESIAN_POINT('',(20.,10.,17.5));
#573=CARTESIAN_POINT('',(20.,10.,-17.5));
#574=CARTESIAN_POINT('',(-12.25,10.,12.5));
#575=CARTESIAN_POINT('Origin',(-15.,10.,12.5));
#576=CARTESIAN_POINT('',(-12.25,10.,-12.5));
#577=CARTESIAN_POINT('Origin',(-15.,10.,-12.5));
#578=CARTESIAN_POINT('',(17.75,10.,12.5));
#579=CARTESIAN_POINT('Origin',(15.,10.,12.5));
#580=CARTESIAN_POINT('',(17.75,10.,-12.5));
#581=CARTESIAN_POINT('Origin',(15.,10.,-12.5));
#582=CARTESIAN_POINT('Origin',(20.,10.,-17.5));
#583=CARTESIAN_POINT('',(-20.,10.,-17.5));
#584=CARTESIAN_POINT('',(20.,10.,-17.5));
#585=CARTESIAN_POINT('Origin',(-13.5,27.85,-7.5));
#586=CARTESIAN_POINT('',(-13.5,11.85,-7.5));
#587=CARTESIAN_POINT('Origin',(0.,11.85,0.));
#588=CARTESIAN_POINT('Origin',(0.,19.85,0.));
#589=CARTESIAN_POINT('',(0.,19.1735,-4.3235));
#590=CARTESIAN_POINT('Origin',(0.,19.1735,0.));
#591=CARTESIAN_POINT('Origin',(0.,-0.15,0.));
#592=CARTESIAN_POINT('',(0.,0.526500000000003,-4.3235));
#593=CARTESIAN_POINT('Origin',(0.,0.526500000000003,0.));
#594=CARTESIAN_POINT('Origin',(0.,0.526500000000003,0.));
#595=CARTESIAN_POINT('Origin',(0.,11.85,0.));
#596=CARTESIAN_POINT('Origin',(-20.,10.,-17.5));
#597=CARTESIAN_POINT('',(-20.,10.,17.5));
#598=CARTESIAN_POINT('Origin',(-20.,10.,17.5));
#599=CARTESIAN_POINT('',(20.,10.,17.5));
#600=CARTESIAN_POINT('Origin',(20.,10.,17.5));
#601=CARTESIAN_POINT('Origin',(15.,10.,-12.5));
#602=CARTESIAN_POINT('Origin',(15.,10.,12.5));
#603=CARTESIAN_POINT('Origin',(-15.,10.,-12.5));
#604=CARTESIAN_POINT('Origin',(-15.,10.,12.5));
#605=UNCERTAINTY_MEASURE_WITH_UNIT(LENGTH_MEASURE(0.01),#609,
'DISTANCE_ACCURACY_VALUE',
'Maximum model space distance between geometric entities at asserted c
onnectivities');
#606=UNCERTAINTY_MEASURE_WITH_UNIT(LENGTH_MEASURE(1.E-6),#609,
'DISTANCE_ACCURACY_VALUE',
'Maximum model space distance between geometric entities at asserted c
onnectivities');
#607=(
GEOMETRIC_REPRESENTATION_CONTEXT(3)
GLOBAL_UNCERTAINTY_ASSIGNED_CONTEXT((#605))
GLOBAL_UNIT_ASSIGNED_CONTEXT((#609,#612,#610))
REPRESENTATION_CONTEXT('','3D')
);
#608=(
GEOMETRIC_REPRESENTATION_CONTEXT(3)
GLOBAL_UNCERTAINTY_ASSIGNED_CONTEXT((#606))
GLOBAL_UNIT_ASSIGNED_CONTEXT((#609,#612,#610))
REPRESENTATION_CONTEXT('','3D')
);
#609=(
LENGTH_UNIT()
NAMED_UNIT(*)
SI_UNIT(.MILLI.,.METRE.)
);
#610=(
NAMED_UNIT(*)
SI_UNIT($,.STERADIAN.)
SOLID_ANGLE_UNIT()
);
#611=DIMENSIONAL_EXPONENTS(0.,0.,0.,0.,0.,0.,0.);
#612=(
CONVERSION_BASED_UNIT('degree',#614)
NAMED_UNIT(#611)
PLANE_ANGLE_UNIT()
);
#613=(
NAMED_UNIT(*)
PLANE_ANGLE_UNIT()
SI_UNIT($,.RADIAN.)
);
#614=PLANE_ANGLE_MEASURE_WITH_UNIT(PLANE_ANGLE_MEASURE(0.01745329252),#613);
#615=SHAPE_DEFINITION_REPRESENTATION(#616,#617);
#616=PRODUCT_DEFINITION_SHAPE('',$,#619);
#617=SHAPE_REPRESENTATION('',(#370),#607);
#618=PRODUCT_DEFINITION_CONTEXT('part definition',#623,'design');
#619=PRODUCT_DEFINITION('CAD_5229','CAD_5229',#620,#618);
#620=PRODUCT_DEFINITION_FORMATION('',$,#625);
#621=PRODUCT_RELATED_PRODUCT_CATEGORY('CAD_5229','CAD_5229',(#625));
#622=APPLICATION_PROTOCOL_DEFINITION('international standard',
'automotive_design',2009,#623);
#623=APPLICATION_CONTEXT(
'Core Data for Automotive Mechanical Design Process');
#624=PRODUCT_CONTEXT('part definition',#623,'mechanical');
#625=PRODUCT('CAD_5229','CAD_5229',$,(#624));
#626=PRESENTATION_STYLE_ASSIGNMENT((#627));
#627=SURFACE_STYLE_USAGE(.BOTH.,#628);
#628=SURFACE_SIDE_STYLE('',(#629));
#629=SURFACE_STYLE_FILL_AREA(#630);
#630=FILL_AREA_STYLE('',(#631));
#631=FILL_AREA_STYLE_COLOUR('',#632);
#632=COLOUR_RGB('',0.87843137254902,0.874509803921569,0.858823529411765);
ENDSEC;
END-ISO-10303-21;
