ISO-10303-21;
HEADER;
/* Generated by software containing ST-Developer
 * from STEP Tools, Inc. (www.steptools.com) 
 */

FILE_DESCRIPTION(
/* description */ (''),
/* implementation_level */ '2;1');

FILE_NAME(
/* name */ 
'X:\\VIRI ZA WEB\\CAD DATOTEKE\\LINEARNE ENOTE UNIMOTION\\DODATNA OPRE
MA ZA LINEARNE ENOTE\\POVEZOVALNI ELEMENTI\\PRITRDILNE SPONE\\PRITRDIL
NA SPONA MTJ_MRJ 40\\izvoz\\CAD_37139.stp',
/* time_stamp */ '2016-04-09T11:17:39+02:00',
/* author */ ('Hypex'),
/* organization */ ('Hypex'),
/* preprocessor_version */ 'ST-DEVELOPER v16.1',
/* originating_system */ 'Autodesk Inventor 2016',
/* authorisation */ '');

FILE_SCHEMA (('AUTOMOTIVE_DESIGN { 1 0 10303 214 3 1 1 }'));
ENDSEC;

DATA;
#10=MECHANICAL_DESIGN_GEOMETRIC_PRESENTATION_REPRESENTATION('',(#13),#517);
#11=SHAPE_REPRESENTATION_RELATIONSHIP('SRR','None',#526,#12);
#12=ADVANCED_BREP_SHAPE_REPRESENTATION('',(#14),#516);
#13=STYLED_ITEM('',(#535),#14);
#14=MANIFOLD_SOLID_BREP('Solid1',#317);
#15=CYLINDRICAL_SURFACE('',#328,4.5);
#16=CYLINDRICAL_SURFACE('',#329,2.75);
#17=CYLINDRICAL_SURFACE('',#334,4.5);
#18=CYLINDRICAL_SURFACE('',#335,2.75);
#19=FACE_BOUND('',#57,.T.);
#20=FACE_BOUND('',#58,.T.);
#21=FACE_BOUND('',#62,.T.);
#22=FACE_BOUND('',#64,.T.);
#23=FACE_BOUND('',#66,.T.);
#24=FACE_BOUND('',#68,.T.);
#25=FACE_BOUND('',#70,.T.);
#26=FACE_BOUND('',#72,.T.);
#27=FACE_BOUND('',#74,.T.);
#28=FACE_BOUND('',#75,.T.);
#29=CIRCLE('',#321,4.5);
#30=CIRCLE('',#322,4.5);
#31=CIRCLE('',#326,4.5);
#32=CIRCLE('',#327,2.75);
#33=CIRCLE('',#330,2.75);
#34=CIRCLE('',#332,4.5);
#35=CIRCLE('',#333,2.75);
#36=CIRCLE('',#336,2.75);
#37=FACE_OUTER_BOUND('',#55,.T.);
#38=FACE_OUTER_BOUND('',#56,.T.);
#39=FACE_OUTER_BOUND('',#59,.T.);
#40=FACE_OUTER_BOUND('',#60,.T.);
#41=FACE_OUTER_BOUND('',#61,.T.);
#42=FACE_OUTER_BOUND('',#63,.T.);
#43=FACE_OUTER_BOUND('',#65,.T.);
#44=FACE_OUTER_BOUND('',#67,.T.);
#45=FACE_OUTER_BOUND('',#69,.T.);
#46=FACE_OUTER_BOUND('',#71,.T.);
#47=FACE_OUTER_BOUND('',#73,.T.);
#48=FACE_OUTER_BOUND('',#76,.T.);
#49=FACE_OUTER_BOUND('',#77,.T.);
#50=FACE_OUTER_BOUND('',#78,.T.);
#51=FACE_OUTER_BOUND('',#79,.T.);
#52=FACE_OUTER_BOUND('',#80,.T.);
#53=FACE_OUTER_BOUND('',#81,.T.);
#54=FACE_OUTER_BOUND('',#82,.T.);
#55=EDGE_LOOP('',(#209,#210,#211,#212));
#56=EDGE_LOOP('',(#213,#214,#215,#216));
#57=EDGE_LOOP('',(#217));
#58=EDGE_LOOP('',(#218));
#59=EDGE_LOOP('',(#219,#220,#221,#222,#223,#224,#225,#226,#227,#228));
#60=EDGE_LOOP('',(#229,#230,#231,#232));
#61=EDGE_LOOP('',(#233));
#62=EDGE_LOOP('',(#234));
#63=EDGE_LOOP('',(#235));
#64=EDGE_LOOP('',(#236));
#65=EDGE_LOOP('',(#237));
#66=EDGE_LOOP('',(#238));
#67=EDGE_LOOP('',(#239));
#68=EDGE_LOOP('',(#240));
#69=EDGE_LOOP('',(#241));
#70=EDGE_LOOP('',(#242));
#71=EDGE_LOOP('',(#243));
#72=EDGE_LOOP('',(#244));
#73=EDGE_LOOP('',(#245,#246,#247,#248));
#74=EDGE_LOOP('',(#249));
#75=EDGE_LOOP('',(#250));
#76=EDGE_LOOP('',(#251,#252,#253,#254));
#77=EDGE_LOOP('',(#255,#256,#257,#258));
#78=EDGE_LOOP('',(#259,#260,#261,#262));
#79=EDGE_LOOP('',(#263,#264,#265,#266));
#80=EDGE_LOOP('',(#267,#268,#269,#270));
#81=EDGE_LOOP('',(#271,#272,#273,#274));
#82=EDGE_LOOP('',(#275,#276,#277,#278,#279,#280,#281,#282,#283,#284));
#83=LINE('',#433,#113);
#84=LINE('',#435,#114);
#85=LINE('',#437,#115);
#86=LINE('',#438,#116);
#87=LINE('',#441,#117);
#88=LINE('',#443,#118);
#89=LINE('',#444,#119);
#90=LINE('',#451,#120);
#91=LINE('',#453,#121);
#92=LINE('',#455,#122);
#93=LINE('',#457,#123);
#94=LINE('',#459,#124);
#95=LINE('',#461,#125);
#96=LINE('',#463,#126);
#97=LINE('',#464,#127);
#98=LINE('',#467,#128);
#99=LINE('',#468,#129);
#100=LINE('',#489,#130);
#101=LINE('',#491,#131);
#102=LINE('',#492,#132);
#103=LINE('',#495,#133);
#104=LINE('',#496,#134);
#105=LINE('',#499,#135);
#106=LINE('',#500,#136);
#107=LINE('',#503,#137);
#108=LINE('',#504,#138);
#109=LINE('',#506,#139);
#110=LINE('',#509,#140);
#111=LINE('',#510,#141);
#112=LINE('',#512,#142);
#113=VECTOR('',#349,2.12132034355964);
#114=VECTOR('',#350,55.);
#115=VECTOR('',#351,2.12132034355964);
#116=VECTOR('',#352,55.);
#117=VECTOR('',#355,12.);
#118=VECTOR('',#356,55.);
#119=VECTOR('',#357,12.);
#120=VECTOR('',#364,2.);
#121=VECTOR('',#365,3.);
#122=VECTOR('',#366,4.1);
#123=VECTOR('',#367,10.);
#124=VECTOR('',#368,0.400000000000003);
#125=VECTOR('',#369,2.);
#126=VECTOR('',#370,6.5);
#127=VECTOR('',#371,2.12132034355965);
#128=VECTOR('',#374,55.);
#129=VECTOR('',#375,2.12132034355965);
#130=VECTOR('',#402,55.);
#131=VECTOR('',#403,55.);
#132=VECTOR('',#404,10.);
#133=VECTOR('',#407,55.);
#134=VECTOR('',#408,4.1);
#135=VECTOR('',#411,55.);
#136=VECTOR('',#412,6.5);
#137=VECTOR('',#415,55.);
#138=VECTOR('',#416,3.);
#139=VECTOR('',#419,2.);
#140=VECTOR('',#422,55.);
#141=VECTOR('',#423,2.);
#142=VECTOR('',#426,0.400000000000003);
#143=VERTEX_POINT('',#431);
#144=VERTEX_POINT('',#432);
#145=VERTEX_POINT('',#434);
#146=VERTEX_POINT('',#436);
#147=VERTEX_POINT('',#440);
#148=VERTEX_POINT('',#442);
#149=VERTEX_POINT('',#445);
#150=VERTEX_POINT('',#447);
#151=VERTEX_POINT('',#450);
#152=VERTEX_POINT('',#452);
#153=VERTEX_POINT('',#454);
#154=VERTEX_POINT('',#456);
#155=VERTEX_POINT('',#458);
#156=VERTEX_POINT('',#460);
#157=VERTEX_POINT('',#462);
#158=VERTEX_POINT('',#466);
#159=VERTEX_POINT('',#470);
#160=VERTEX_POINT('',#472);
#161=VERTEX_POINT('',#476);
#162=VERTEX_POINT('',#479);
#163=VERTEX_POINT('',#481);
#164=VERTEX_POINT('',#485);
#165=VERTEX_POINT('',#488);
#166=VERTEX_POINT('',#490);
#167=VERTEX_POINT('',#494);
#168=VERTEX_POINT('',#498);
#169=VERTEX_POINT('',#502);
#170=VERTEX_POINT('',#508);
#171=EDGE_CURVE('',#143,#144,#83,.T.);
#172=EDGE_CURVE('',#144,#145,#84,.T.);
#173=EDGE_CURVE('',#145,#146,#85,.T.);
#174=EDGE_CURVE('',#146,#143,#86,.T.);
#175=EDGE_CURVE('',#144,#147,#87,.T.);
#176=EDGE_CURVE('',#148,#147,#88,.T.);
#177=EDGE_CURVE('',#148,#145,#89,.T.);
#178=EDGE_CURVE('',#149,#149,#29,.T.);
#179=EDGE_CURVE('',#150,#150,#30,.T.);
#180=EDGE_CURVE('',#151,#143,#90,.T.);
#181=EDGE_CURVE('',#152,#151,#91,.T.);
#182=EDGE_CURVE('',#153,#152,#92,.T.);
#183=EDGE_CURVE('',#154,#153,#93,.T.);
#184=EDGE_CURVE('',#155,#154,#94,.T.);
#185=EDGE_CURVE('',#156,#155,#95,.T.);
#186=EDGE_CURVE('',#157,#156,#96,.T.);
#187=EDGE_CURVE('',#147,#157,#97,.T.);
#188=EDGE_CURVE('',#157,#158,#98,.T.);
#189=EDGE_CURVE('',#158,#148,#99,.T.);
#190=EDGE_CURVE('',#159,#159,#31,.T.);
#191=EDGE_CURVE('',#160,#160,#32,.T.);
#192=EDGE_CURVE('',#161,#161,#33,.T.);
#193=EDGE_CURVE('',#162,#162,#34,.T.);
#194=EDGE_CURVE('',#163,#163,#35,.T.);
#195=EDGE_CURVE('',#164,#164,#36,.T.);
#196=EDGE_CURVE('',#165,#154,#100,.T.);
#197=EDGE_CURVE('',#166,#153,#101,.T.);
#198=EDGE_CURVE('',#166,#165,#102,.T.);
#199=EDGE_CURVE('',#167,#152,#103,.T.);
#200=EDGE_CURVE('',#167,#166,#104,.T.);
#201=EDGE_CURVE('',#168,#156,#105,.T.);
#202=EDGE_CURVE('',#168,#158,#106,.T.);
#203=EDGE_CURVE('',#169,#151,#107,.T.);
#204=EDGE_CURVE('',#169,#167,#108,.T.);
#205=EDGE_CURVE('',#146,#169,#109,.T.);
#206=EDGE_CURVE('',#170,#155,#110,.T.);
#207=EDGE_CURVE('',#170,#168,#111,.T.);
#208=EDGE_CURVE('',#165,#170,#112,.T.);
#209=ORIENTED_EDGE('',*,*,#171,.T.);
#210=ORIENTED_EDGE('',*,*,#172,.T.);
#211=ORIENTED_EDGE('',*,*,#173,.T.);
#212=ORIENTED_EDGE('',*,*,#174,.T.);
#213=ORIENTED_EDGE('',*,*,#172,.F.);
#214=ORIENTED_EDGE('',*,*,#175,.T.);
#215=ORIENTED_EDGE('',*,*,#176,.F.);
#216=ORIENTED_EDGE('',*,*,#177,.T.);
#217=ORIENTED_EDGE('',*,*,#178,.T.);
#218=ORIENTED_EDGE('',*,*,#179,.T.);
#219=ORIENTED_EDGE('',*,*,#171,.F.);
#220=ORIENTED_EDGE('',*,*,#180,.F.);
#221=ORIENTED_EDGE('',*,*,#181,.F.);
#222=ORIENTED_EDGE('',*,*,#182,.F.);
#223=ORIENTED_EDGE('',*,*,#183,.F.);
#224=ORIENTED_EDGE('',*,*,#184,.F.);
#225=ORIENTED_EDGE('',*,*,#185,.F.);
#226=ORIENTED_EDGE('',*,*,#186,.F.);
#227=ORIENTED_EDGE('',*,*,#187,.F.);
#228=ORIENTED_EDGE('',*,*,#175,.F.);
#229=ORIENTED_EDGE('',*,*,#187,.T.);
#230=ORIENTED_EDGE('',*,*,#188,.T.);
#231=ORIENTED_EDGE('',*,*,#189,.T.);
#232=ORIENTED_EDGE('',*,*,#176,.T.);
#233=ORIENTED_EDGE('',*,*,#190,.T.);
#234=ORIENTED_EDGE('',*,*,#191,.F.);
#235=ORIENTED_EDGE('',*,*,#178,.F.);
#236=ORIENTED_EDGE('',*,*,#190,.F.);
#237=ORIENTED_EDGE('',*,*,#192,.F.);
#238=ORIENTED_EDGE('',*,*,#191,.T.);
#239=ORIENTED_EDGE('',*,*,#193,.T.);
#240=ORIENTED_EDGE('',*,*,#194,.F.);
#241=ORIENTED_EDGE('',*,*,#179,.F.);
#242=ORIENTED_EDGE('',*,*,#193,.F.);
#243=ORIENTED_EDGE('',*,*,#195,.F.);
#244=ORIENTED_EDGE('',*,*,#194,.T.);
#245=ORIENTED_EDGE('',*,*,#196,.T.);
#246=ORIENTED_EDGE('',*,*,#183,.T.);
#247=ORIENTED_EDGE('',*,*,#197,.F.);
#248=ORIENTED_EDGE('',*,*,#198,.T.);
#249=ORIENTED_EDGE('',*,*,#192,.T.);
#250=ORIENTED_EDGE('',*,*,#195,.T.);
#251=ORIENTED_EDGE('',*,*,#199,.F.);
#252=ORIENTED_EDGE('',*,*,#200,.T.);
#253=ORIENTED_EDGE('',*,*,#197,.T.);
#254=ORIENTED_EDGE('',*,*,#182,.T.);
#255=ORIENTED_EDGE('',*,*,#188,.F.);
#256=ORIENTED_EDGE('',*,*,#186,.T.);
#257=ORIENTED_EDGE('',*,*,#201,.F.);
#258=ORIENTED_EDGE('',*,*,#202,.T.);
#259=ORIENTED_EDGE('',*,*,#181,.T.);
#260=ORIENTED_EDGE('',*,*,#203,.F.);
#261=ORIENTED_EDGE('',*,*,#204,.T.);
#262=ORIENTED_EDGE('',*,*,#199,.T.);
#263=ORIENTED_EDGE('',*,*,#174,.F.);
#264=ORIENTED_EDGE('',*,*,#205,.T.);
#265=ORIENTED_EDGE('',*,*,#203,.T.);
#266=ORIENTED_EDGE('',*,*,#180,.T.);
#267=ORIENTED_EDGE('',*,*,#185,.T.);
#268=ORIENTED_EDGE('',*,*,#206,.F.);
#269=ORIENTED_EDGE('',*,*,#207,.T.);
#270=ORIENTED_EDGE('',*,*,#201,.T.);
#271=ORIENTED_EDGE('',*,*,#184,.T.);
#272=ORIENTED_EDGE('',*,*,#196,.F.);
#273=ORIENTED_EDGE('',*,*,#208,.T.);
#274=ORIENTED_EDGE('',*,*,#206,.T.);
#275=ORIENTED_EDGE('',*,*,#173,.F.);
#276=ORIENTED_EDGE('',*,*,#177,.F.);
#277=ORIENTED_EDGE('',*,*,#189,.F.);
#278=ORIENTED_EDGE('',*,*,#202,.F.);
#279=ORIENTED_EDGE('',*,*,#207,.F.);
#280=ORIENTED_EDGE('',*,*,#208,.F.);
#281=ORIENTED_EDGE('',*,*,#198,.F.);
#282=ORIENTED_EDGE('',*,*,#200,.F.);
#283=ORIENTED_EDGE('',*,*,#204,.F.);
#284=ORIENTED_EDGE('',*,*,#205,.F.);
#285=PLANE('',#319);
#286=PLANE('',#320);
#287=PLANE('',#323);
#288=PLANE('',#324);
#289=PLANE('',#325);
#290=PLANE('',#331);
#291=PLANE('',#337);
#292=PLANE('',#338);
#293=PLANE('',#339);
#294=PLANE('',#340);
#295=PLANE('',#341);
#296=PLANE('',#342);
#297=PLANE('',#343);
#298=PLANE('',#344);
#299=ADVANCED_FACE('',(#37),#285,.T.);
#300=ADVANCED_FACE('',(#38,#19,#20),#286,.T.);
#301=ADVANCED_FACE('',(#39),#287,.T.);
#302=ADVANCED_FACE('',(#40),#288,.T.);
#303=ADVANCED_FACE('',(#41,#21),#289,.T.);
#304=ADVANCED_FACE('',(#42,#22),#15,.F.);
#305=ADVANCED_FACE('',(#43,#23),#16,.F.);
#306=ADVANCED_FACE('',(#44,#24),#290,.T.);
#307=ADVANCED_FACE('',(#45,#25),#17,.F.);
#308=ADVANCED_FACE('',(#46,#26),#18,.F.);
#309=ADVANCED_FACE('',(#47,#27,#28),#291,.T.);
#310=ADVANCED_FACE('',(#48),#292,.T.);
#311=ADVANCED_FACE('',(#49),#293,.T.);
#312=ADVANCED_FACE('',(#50),#294,.T.);
#313=ADVANCED_FACE('',(#51),#295,.T.);
#314=ADVANCED_FACE('',(#52),#296,.T.);
#315=ADVANCED_FACE('',(#53),#297,.T.);
#316=ADVANCED_FACE('',(#54),#298,.F.);
#317=CLOSED_SHELL('',(#299,#300,#301,#302,#303,#304,#305,#306,#307,#308,
#309,#310,#311,#312,#313,#314,#315,#316));
#318=AXIS2_PLACEMENT_3D('placement',#429,#345,#346);
#319=AXIS2_PLACEMENT_3D('',#430,#347,#348);
#320=AXIS2_PLACEMENT_3D('',#439,#353,#354);
#321=AXIS2_PLACEMENT_3D('',#446,#358,#359);
#322=AXIS2_PLACEMENT_3D('',#448,#360,#361);
#323=AXIS2_PLACEMENT_3D('',#449,#362,#363);
#324=AXIS2_PLACEMENT_3D('',#465,#372,#373);
#325=AXIS2_PLACEMENT_3D('',#469,#376,#377);
#326=AXIS2_PLACEMENT_3D('',#471,#378,#379);
#327=AXIS2_PLACEMENT_3D('',#473,#380,#381);
#328=AXIS2_PLACEMENT_3D('',#474,#382,#383);
#329=AXIS2_PLACEMENT_3D('',#475,#384,#385);
#330=AXIS2_PLACEMENT_3D('',#477,#386,#387);
#331=AXIS2_PLACEMENT_3D('',#478,#388,#389);
#332=AXIS2_PLACEMENT_3D('',#480,#390,#391);
#333=AXIS2_PLACEMENT_3D('',#482,#392,#393);
#334=AXIS2_PLACEMENT_3D('',#483,#394,#395);
#335=AXIS2_PLACEMENT_3D('',#484,#396,#397);
#336=AXIS2_PLACEMENT_3D('',#486,#398,#399);
#337=AXIS2_PLACEMENT_3D('',#487,#400,#401);
#338=AXIS2_PLACEMENT_3D('',#493,#405,#406);
#339=AXIS2_PLACEMENT_3D('',#497,#409,#410);
#340=AXIS2_PLACEMENT_3D('',#501,#413,#414);
#341=AXIS2_PLACEMENT_3D('',#505,#417,#418);
#342=AXIS2_PLACEMENT_3D('',#507,#420,#421);
#343=AXIS2_PLACEMENT_3D('',#511,#424,#425);
#344=AXIS2_PLACEMENT_3D('',#513,#427,#428);
#345=DIRECTION('axis',(0.,0.,1.));
#346=DIRECTION('refdir',(1.,0.,0.));
#347=DIRECTION('center_axis',(-0.707106781186548,0.707106781186548,0.));
#348=DIRECTION('ref_axis',(0.,0.,1.));
#349=DIRECTION('',(0.707106781186548,0.707106781186548,0.));
#350=DIRECTION('',(0.,0.,-1.));
#351=DIRECTION('',(-0.707106781186548,-0.707106781186548,0.));
#352=DIRECTION('',(0.,0.,1.));
#353=DIRECTION('center_axis',(0.,1.,0.));
#354=DIRECTION('ref_axis',(0.,0.,1.));
#355=DIRECTION('',(1.,1.48029736616688E-16,0.));
#356=DIRECTION('',(0.,0.,1.));
#357=DIRECTION('',(-1.,-1.48029736616688E-16,0.));
#358=DIRECTION('center_axis',(0.,-1.,0.));
#359=DIRECTION('ref_axis',(1.,0.,0.));
#360=DIRECTION('center_axis',(0.,-1.,0.));
#361=DIRECTION('ref_axis',(1.,0.,0.));
#362=DIRECTION('center_axis',(0.,0.,1.));
#363=DIRECTION('ref_axis',(1.,0.,0.));
#364=DIRECTION('',(0.,1.,0.));
#365=DIRECTION('',(-1.,-3.70074341541719E-16,0.));
#366=DIRECTION('',(-1.46081976924363E-16,1.,0.));
#367=DIRECTION('',(-1.,-1.85037170770859E-16,0.));
#368=DIRECTION('',(-1.38777878078144E-15,1.,0.));
#369=DIRECTION('',(-1.,-1.11022302462516E-15,0.));
#370=DIRECTION('',(-1.38777878078144E-15,-1.,0.));
#371=DIRECTION('',(0.707106781186548,-0.707106781186547,0.));
#372=DIRECTION('center_axis',(0.707106781186547,0.707106781186548,0.));
#373=DIRECTION('ref_axis',(0.,0.,-1.));
#374=DIRECTION('',(0.,0.,-1.));
#375=DIRECTION('',(-0.707106781186548,0.707106781186547,0.));
#376=DIRECTION('center_axis',(0.,1.,0.));
#377=DIRECTION('ref_axis',(1.,0.,0.));
#378=DIRECTION('center_axis',(0.,1.,0.));
#379=DIRECTION('ref_axis',(1.,0.,0.));
#380=DIRECTION('center_axis',(0.,1.,0.));
#381=DIRECTION('ref_axis',(1.,0.,0.));
#382=DIRECTION('center_axis',(0.,1.,0.));
#383=DIRECTION('ref_axis',(1.,0.,0.));
#384=DIRECTION('center_axis',(0.,1.,0.));
#385=DIRECTION('ref_axis',(1.,0.,0.));
#386=DIRECTION('center_axis',(-1.85037170770859E-16,1.,0.));
#387=DIRECTION('ref_axis',(1.,0.,0.));
#388=DIRECTION('center_axis',(0.,1.,0.));
#389=DIRECTION('ref_axis',(1.,0.,0.));
#390=DIRECTION('center_axis',(0.,1.,0.));
#391=DIRECTION('ref_axis',(1.,0.,0.));
#392=DIRECTION('center_axis',(0.,1.,0.));
#393=DIRECTION('ref_axis',(1.,0.,0.));
#394=DIRECTION('center_axis',(0.,1.,0.));
#395=DIRECTION('ref_axis',(1.,0.,0.));
#396=DIRECTION('center_axis',(0.,1.,0.));
#397=DIRECTION('ref_axis',(1.,0.,0.));
#398=DIRECTION('center_axis',(-1.85037170770859E-16,1.,0.));
#399=DIRECTION('ref_axis',(1.,0.,0.));
#400=DIRECTION('center_axis',(1.85037170770859E-16,-1.,0.));
#401=DIRECTION('ref_axis',(0.,0.,-1.));
#402=DIRECTION('',(0.,0.,1.));
#403=DIRECTION('',(0.,0.,1.));
#404=DIRECTION('',(1.,1.85037170770859E-16,0.));
#405=DIRECTION('center_axis',(-1.,-1.46081976924363E-16,0.));
#406=DIRECTION('ref_axis',(0.,0.,1.));
#407=DIRECTION('',(0.,0.,1.));
#408=DIRECTION('',(1.46081976924363E-16,-1.,0.));
#409=DIRECTION('center_axis',(1.,1.85037170770859E-16,0.));
#410=DIRECTION('ref_axis',(0.,0.,-1.));
#411=DIRECTION('',(0.,0.,1.));
#412=DIRECTION('',(1.38777878078144E-15,1.,0.));
#413=DIRECTION('center_axis',(3.70074341541719E-16,-1.,0.));
#414=DIRECTION('ref_axis',(0.,0.,-1.));
#415=DIRECTION('',(0.,0.,1.));
#416=DIRECTION('',(1.,3.70074341541719E-16,0.));
#417=DIRECTION('center_axis',(-1.,0.,0.));
#418=DIRECTION('ref_axis',(0.,0.,1.));
#419=DIRECTION('',(0.,-1.,0.));
#420=DIRECTION('center_axis',(1.11022302462516E-15,-1.,0.));
#421=DIRECTION('ref_axis',(0.,0.,-1.));
#422=DIRECTION('',(0.,0.,1.));
#423=DIRECTION('',(1.,1.11022302462516E-15,0.));
#424=DIRECTION('center_axis',(-1.,-1.38777878078144E-15,0.));
#425=DIRECTION('ref_axis',(0.,0.,1.));
#426=DIRECTION('',(1.38777878078144E-15,-1.,0.));
#427=DIRECTION('center_axis',(0.,0.,1.));
#428=DIRECTION('ref_axis',(1.,0.,0.));
#429=CARTESIAN_POINT('',(0.,0.,0.));
#430=CARTESIAN_POINT('Origin',(-9.32690611494427,-4.30427324779684,0.));
#431=CARTESIAN_POINT('',(-10.0769061149443,-5.05427324779684,55.));
#432=CARTESIAN_POINT('',(-8.57690611494427,-3.55427324779684,55.));
#433=CARTESIAN_POINT('',(-7.77690611494427,-2.75427324779684,55.));
#434=CARTESIAN_POINT('',(-8.57690611494427,-3.55427324779684,0.));
#435=CARTESIAN_POINT('',(-8.57690611494427,-3.55427324779684,0.));
#436=CARTESIAN_POINT('',(-10.0769061149443,-5.05427324779684,0.));
#437=CARTESIAN_POINT('',(-7.77690611494427,-2.75427324779684,0.));
#438=CARTESIAN_POINT('',(-10.0769061149443,-5.05427324779684,0.));
#439=CARTESIAN_POINT('Origin',(-10.0769061149443,-3.55427324779684,0.));
#440=CARTESIAN_POINT('',(3.42309388505573,-3.55427324779684,55.));
#441=CARTESIAN_POINT('',(4.92309388505573,-3.55427324779684,55.));
#442=CARTESIAN_POINT('',(3.42309388505573,-3.55427324779684,0.));
#443=CARTESIAN_POINT('',(3.42309388505573,-3.55427324779684,0.));
#444=CARTESIAN_POINT('',(4.92309388505573,-3.55427324779684,0.));
#445=CARTESIAN_POINT('',(2.22309388505573,-3.55427324779684,7.5));
#446=CARTESIAN_POINT('Origin',(-2.27690611494427,-3.55427324779684,7.5));
#447=CARTESIAN_POINT('',(2.22309388505573,-3.55427324779684,47.5));
#448=CARTESIAN_POINT('Origin',(-2.27690611494427,-3.55427324779684,47.5));
#449=CARTESIAN_POINT('Origin',(3.92309388505573,-11.3542732477968,55.));
#450=CARTESIAN_POINT('',(-10.0769061149443,-7.05427324779684,55.));
#451=CARTESIAN_POINT('',(-10.0769061149443,-3.55427324779684,55.));
#452=CARTESIAN_POINT('',(-7.07690611494427,-7.05427324779684,55.));
#453=CARTESIAN_POINT('',(-10.0769061149443,-7.05427324779684,55.));
#454=CARTESIAN_POINT('',(-7.07690611494427,-11.1542732477968,55.));
#455=CARTESIAN_POINT('',(-7.07690611494427,-3.55427324779684,55.));
#456=CARTESIAN_POINT('',(2.92309388505573,-11.1542732477968,55.));
#457=CARTESIAN_POINT('',(-7.07690611494427,-11.1542732477968,55.));
#458=CARTESIAN_POINT('',(2.92309388505573,-11.5542732477968,55.));
#459=CARTESIAN_POINT('',(2.92309388505573,-11.1542732477968,55.));
#460=CARTESIAN_POINT('',(4.92309388505573,-11.5542732477968,55.));
#461=CARTESIAN_POINT('',(2.92309388505573,-11.5542732477968,55.));
#462=CARTESIAN_POINT('',(4.92309388505574,-5.05427324779684,55.));
#463=CARTESIAN_POINT('',(4.92309388505573,-11.5542732477968,55.));
#464=CARTESIAN_POINT('',(5.87309388505573,-6.00427324779684,55.));
#465=CARTESIAN_POINT('Origin',(4.17309388505573,-4.30427324779684,0.));
#466=CARTESIAN_POINT('',(4.92309388505574,-5.05427324779684,0.));
#467=CARTESIAN_POINT('',(4.92309388505573,-5.05427324779684,0.));
#468=CARTESIAN_POINT('',(5.87309388505573,-6.00427324779684,0.));
#469=CARTESIAN_POINT('Origin',(-2.27690611494427,-9.05427324779684,7.5));
#470=CARTESIAN_POINT('',(2.22309388505573,-9.05427324779684,7.5));
#471=CARTESIAN_POINT('Origin',(-2.27690611494427,-9.05427324779684,7.5));
#472=CARTESIAN_POINT('',(-5.02690611494427,-9.05427324779684,7.5));
#473=CARTESIAN_POINT('Origin',(-2.27690611494427,-9.05427324779684,7.5));
#474=CARTESIAN_POINT('Origin',(-2.27690611494427,-6.30427324779684,7.5));
#475=CARTESIAN_POINT('Origin',(-2.27690611494427,-61.1216251062939,7.5));
#476=CARTESIAN_POINT('',(-5.02690611494427,-11.1542732477968,7.5));
#477=CARTESIAN_POINT('Origin',(-2.27690611494427,-11.1542732477968,7.5));
#478=CARTESIAN_POINT('Origin',(-2.27690611494427,-9.05427324779684,47.5));
#479=CARTESIAN_POINT('',(2.22309388505573,-9.05427324779684,47.5));
#480=CARTESIAN_POINT('Origin',(-2.27690611494427,-9.05427324779684,47.5));
#481=CARTESIAN_POINT('',(-5.02690611494427,-9.05427324779684,47.5));
#482=CARTESIAN_POINT('Origin',(-2.27690611494427,-9.05427324779684,47.5));
#483=CARTESIAN_POINT('Origin',(-2.27690611494427,-6.30427324779684,47.5));
#484=CARTESIAN_POINT('Origin',(-2.27690611494427,-61.1216251062939,47.5));
#485=CARTESIAN_POINT('',(-5.02690611494427,-11.1542732477968,47.5));
#486=CARTESIAN_POINT('Origin',(-2.27690611494427,-11.1542732477968,47.5));
#487=CARTESIAN_POINT('Origin',(4.92309388505573,-11.1542732477968,0.));
#488=CARTESIAN_POINT('',(2.92309388505573,-11.1542732477968,0.));
#489=CARTESIAN_POINT('',(2.92309388505573,-11.1542732477968,0.));
#490=CARTESIAN_POINT('',(-7.07690611494427,-11.1542732477968,0.));
#491=CARTESIAN_POINT('',(-7.07690611494427,-11.1542732477968,0.));
#492=CARTESIAN_POINT('',(-7.07690611494427,-11.1542732477968,0.));
#493=CARTESIAN_POINT('Origin',(-7.07690611494427,-11.1542732477968,0.));
#494=CARTESIAN_POINT('',(-7.07690611494427,-7.05427324779684,0.));
#495=CARTESIAN_POINT('',(-7.07690611494427,-7.05427324779684,0.));
#496=CARTESIAN_POINT('',(-7.07690611494427,-3.55427324779684,0.));
#497=CARTESIAN_POINT('Origin',(4.92309388505573,-3.55427324779684,0.));
#498=CARTESIAN_POINT('',(4.92309388505573,-11.5542732477968,0.));
#499=CARTESIAN_POINT('',(4.92309388505573,-11.5542732477968,0.));
#500=CARTESIAN_POINT('',(4.92309388505573,-11.5542732477968,0.));
#501=CARTESIAN_POINT('Origin',(-7.07690611494427,-7.05427324779684,0.));
#502=CARTESIAN_POINT('',(-10.0769061149443,-7.05427324779684,0.));
#503=CARTESIAN_POINT('',(-10.0769061149443,-7.05427324779684,0.));
#504=CARTESIAN_POINT('',(-10.0769061149443,-7.05427324779684,0.));
#505=CARTESIAN_POINT('Origin',(-10.0769061149443,-7.05427324779684,0.));
#506=CARTESIAN_POINT('',(-10.0769061149443,-3.55427324779684,0.));
#507=CARTESIAN_POINT('Origin',(4.92309388505573,-11.5542732477968,0.));
#508=CARTESIAN_POINT('',(2.92309388505573,-11.5542732477968,0.));
#509=CARTESIAN_POINT('',(2.92309388505573,-11.5542732477968,0.));
#510=CARTESIAN_POINT('',(2.92309388505573,-11.5542732477968,0.));
#511=CARTESIAN_POINT('Origin',(2.92309388505573,-11.5542732477968,0.));
#512=CARTESIAN_POINT('',(2.92309388505573,-11.1542732477968,0.));
#513=CARTESIAN_POINT('Origin',(3.92309388505573,-11.3542732477968,0.));
#514=UNCERTAINTY_MEASURE_WITH_UNIT(LENGTH_MEASURE(0.01),#518,
'DISTANCE_ACCURACY_VALUE',
'Maximum model space distance between geometric entities at asserted c
onnectivities');
#515=UNCERTAINTY_MEASURE_WITH_UNIT(LENGTH_MEASURE(1.E-6),#518,
'DISTANCE_ACCURACY_VALUE',
'Maximum model space distance between geometric entities at asserted c
onnectivities');
#516=(
GEOMETRIC_REPRESENTATION_CONTEXT(3)
GLOBAL_UNCERTAINTY_ASSIGNED_CONTEXT((#514))
GLOBAL_UNIT_ASSIGNED_CONTEXT((#518,#521,#519))
REPRESENTATION_CONTEXT('','3D')
);
#517=(
GEOMETRIC_REPRESENTATION_CONTEXT(3)
GLOBAL_UNCERTAINTY_ASSIGNED_CONTEXT((#515))
GLOBAL_UNIT_ASSIGNED_CONTEXT((#518,#521,#519))
REPRESENTATION_CONTEXT('','3D')
);
#518=(
LENGTH_UNIT()
NAMED_UNIT(*)
SI_UNIT(.MILLI.,.METRE.)
);
#519=(
NAMED_UNIT(*)
SI_UNIT($,.STERADIAN.)
SOLID_ANGLE_UNIT()
);
#520=DIMENSIONAL_EXPONENTS(0.,0.,0.,0.,0.,0.,0.);
#521=(
CONVERSION_BASED_UNIT('degree',#523)
NAMED_UNIT(#520)
PLANE_ANGLE_UNIT()
);
#522=(
NAMED_UNIT(*)
PLANE_ANGLE_UNIT()
SI_UNIT($,.RADIAN.)
);
#523=PLANE_ANGLE_MEASURE_WITH_UNIT(PLANE_ANGLE_MEASURE(0.01745329252),#522);
#524=SHAPE_DEFINITION_REPRESENTATION(#525,#526);
#525=PRODUCT_DEFINITION_SHAPE('',$,#528);
#526=SHAPE_REPRESENTATION('',(#318),#516);
#527=PRODUCT_DEFINITION_CONTEXT('part definition',#532,'design');
#528=PRODUCT_DEFINITION('CAD_37139','CAD_37139',#529,#527);
#529=PRODUCT_DEFINITION_FORMATION('',$,#534);
#530=PRODUCT_RELATED_PRODUCT_CATEGORY('CAD_37139','CAD_37139',(#534));
#531=APPLICATION_PROTOCOL_DEFINITION('international standard',
'automotive_design',2009,#532);
#532=APPLICATION_CONTEXT(
'Core Data for Automotive Mechanical Design Process');
#533=PRODUCT_CONTEXT('part definition',#532,'mechanical');
#534=PRODUCT('CAD_37139','CAD_37139',$,(#533));
#535=PRESENTATION_STYLE_ASSIGNMENT((#536));
#536=SURFACE_STYLE_USAGE(.BOTH.,#537);
#537=SURFACE_SIDE_STYLE('',(#538));
#538=SURFACE_STYLE_FILL_AREA(#539);
#539=FILL_AREA_STYLE('',(#540));
#540=FILL_AREA_STYLE_COLOUR('',#541);
#541=COLOUR_RGB('',0.847058823529412,0.83921568627451,0.83921568627451);
ENDSEC;
END-ISO-10303-21;
